  0
SECTION
  2
HEADER
  9
$ACADVER
  1
AC1021
  9
$ACADMAINTVER
 70
    25
  9
$DWGCODEPAGE
  3
ANSI_1252
  9
$INSBASE
 10
0.0
 20
0.0
 30
0.0
  9
$EXTMIN
 10
-284.8443779256
 20
-188.5520339508
 30
0.0
  9
$EXTMAX
 10
284.8443779256
 20
164.4371592331
 30
0.0
  9
$LIMMIN
 10
0.0
 20
0.0
  9
$LIMMAX
 10
420.0
 20
297.0
  9
$ORTHOMODE
 70
     0
  9
$REGENMODE
 70
     1
  9
$FILLMODE
 70
     1
  9
$QTEXTMODE
 70
     0
  9
$MIRRTEXT
 70
     1
  9
$LTSCALE
 40
1.0
  9
$ATTMODE
 70
     1
  9
$TEXTSIZE
 40
3.5
  9
$TRACEWID
 40
1.0
  9
$TEXTSTYLE
  7
Standard
  9
$CLAYER
  8
0
  9
$CELTYPE
  6
ByLayer
  9
$CECOLOR
 62
   256
  9
$CELTSCALE
 40
1.0
  9
$DISPSILH
 70
     0
  9
$DIMSCALE
 40
1.0
  9
$DIMASZ
 40
6.0
  9
$DIMEXO
 40
1.0
  9
$DIMDLI
 40
3.75
  9
$DIMRND
 40
0.0
  9
$DIMDLE
 40
0.0
  9
$DIMEXE
 40
1.0
  9
$DIMTP
 40
0.0
  9
$DIMTM
 40
0.0
  9
$DIMTXT
 40
3.5
  9
$DIMCEN
 40
2.5
  9
$DIMTSZ
 40
0.0
  9
$DIMTOL
 70
     0
  9
$DIMLIM
 70
     0
  9
$DIMTIH
 70
     1
  9
$DIMTOH
 70
     1
  9
$DIMSE1
 70
     0
  9
$DIMSE2
 70
     0
  9
$DIMTAD
 70
     1
  9
$DIMZIN
 70
     0
  9
$DIMBLK
  1

  9
$DIMASO
 70
     1
  9
$DIMSHO
 70
     1
  9
$DIMPOST
  1

  9
$DIMAPOST
  1

  9
$DIMALT
 70
     0
  9
$DIMALTD
 70
     3
  9
$DIMALTF
 40
0.0393700787
  9
$DIMLFAC
 40
1.0
  9
$DIMTOFL
 70
     1
  9
$DIMTVP
 40
0.0
  9
$DIMTIX
 70
     0
  9
$DIMSOXD
 70
     0
  9
$DIMSAH
 70
     0
  9
$DIMBLK1
  1

  9
$DIMBLK2
  1

  9
$DIMSTYLE
  2
ISO-25
  9
$DIMCLRD
 70
     0
  9
$DIMCLRE
 70
     0
  9
$DIMCLRT
 70
     0
  9
$DIMTFAC
 40
1.0
  9
$DIMGAP
 40
1.524
  9
$DIMJUST
 70
     0
  9
$DIMSD1
 70
     0
  9
$DIMSD2
 70
     0
  9
$DIMTOLJ
 70
     0
  9
$DIMTZIN
 70
     0
  9
$DIMALTZ
 70
     0
  9
$DIMALTTZ
 70
     0
  9
$DIMUPT
 70
     0
  9
$DIMDEC
 70
     2
  9
$DIMTDEC
 70
     2
  9
$DIMALTU
 70
     2
  9
$DIMALTTD
 70
     3
  9
$DIMTXSTY
  7
Standard
  9
$DIMAUNIT
 70
     0
  9
$DIMADEC
 70
     2
  9
$DIMALTRND
 40
0.0
  9
$DIMAZIN
 70
     0
  9
$DIMDSEP
 70
    44
  9
$DIMATFIT
 70
     3
  9
$DIMFRAC
 70
     0
  9
$DIMLDRBLK
  1

  9
$DIMLUNIT
 70
     2
  9
$DIMLWD
 70
    -2
  9
$DIMLWE
 70
    -2
  9
$DIMTMOVE
 70
     0
  9
$DIMFXL
 40
1.0
  9
$DIMFXLON
 70
     0
  9
$DIMJOGANG
 40
0.7853981634
  9
$DIMTFILL
 70
     0
  9
$DIMTFILLCLR
 70
     0
  9
$DIMARCSYM
 70
     0
  9
$DIMLTYPE
  6

  9
$DIMLTEX1
  6

  9
$DIMLTEX2
  6

  9
$LUNITS
 70
     2
  9
$LUPREC
 70
     2
  9
$SKETCHINC
 40
1.0
  9
$FILLETRAD
 40
10.0
  9
$AUNITS
 70
     0
  9
$AUPREC
 70
     2
  9
$MENU
  1
.
  9
$ELEVATION
 40
0.0
  9
$PELEVATION
 40
0.0
  9
$THICKNESS
 40
0.0
  9
$LIMCHECK
 70
     0
  9
$CHAMFERA
 40
0.0
  9
$CHAMFERB
 40
0.0
  9
$CHAMFERC
 40
0.0
  9
$CHAMFERD
 40
0.0
  9
$SKPOLY
 70
     0
  9
$TDCREATE
 40
2458225.566963912
  9
$TDUCREATE
 40
2458225.483630578
  9
$TDUPDATE
 40
2458225.566991157
  9
$TDUUPDATE
 40
2458225.483657824
  9
$TDINDWG
 40
0.0000000116
  9
$TDUSRTIMER
 40
0.0000000116
  9
$USRTIMER
 70
     1
  9
$ANGBASE
 50
0.0
  9
$ANGDIR
 70
     0
  9
$PDMODE
 70
     0
  9
$PDSIZE
 40
-1.0
  9
$PLINEWID
 40
0.0
  9
$SPLFRAME
 70
     0
  9
$SPLINETYPE
 70
     6
  9
$SPLINESEGS
 70
     8
  9
$HANDSEED
  5
103
  9
$SURFTAB1
 70
     6
  9
$SURFTAB2
 70
     6
  9
$SURFTYPE
 70
     6
  9
$SURFU
 70
     6
  9
$SURFV
 70
     6
  9
$UCSBASE
  2

  9
$UCSNAME
  2

  9
$UCSORG
 10
0.0
 20
0.0
 30
0.0
  9
$UCSXDIR
 10
1.0
 20
0.0
 30
0.0
  9
$UCSYDIR
 10
0.0
 20
1.0
 30
0.0
  9
$UCSORTHOREF
  2

  9
$UCSORTHOVIEW
 70
     0
  9
$UCSORGTOP
 10
0.0
 20
0.0
 30
0.0
  9
$UCSORGBOTTOM
 10
0.0
 20
0.0
 30
0.0
  9
$UCSORGLEFT
 10
0.0
 20
0.0
 30
0.0
  9
$UCSORGRIGHT
 10
0.0
 20
0.0
 30
0.0
  9
$UCSORGFRONT
 10
0.0
 20
0.0
 30
0.0
  9
$UCSORGBACK
 10
0.0
 20
0.0
 30
0.0
  9
$PUCSBASE
  2

  9
$PUCSNAME
  2

  9
$PUCSORG
 10
0.0
 20
0.0
 30
0.0
  9
$PUCSXDIR
 10
1.0
 20
0.0
 30
0.0
  9
$PUCSYDIR
 10
0.0
 20
1.0
 30
0.0
  9
$PUCSORTHOREF
  2

  9
$PUCSORTHOVIEW
 70
     0
  9
$PUCSORGTOP
 10
0.0
 20
0.0
 30
0.0
  9
$PUCSORGBOTTOM
 10
0.0
 20
0.0
 30
0.0
  9
$PUCSORGLEFT
 10
0.0
 20
0.0
 30
0.0
  9
$PUCSORGRIGHT
 10
0.0
 20
0.0
 30
0.0
  9
$PUCSORGFRONT
 10
0.0
 20
0.0
 30
0.0
  9
$PUCSORGBACK
 10
0.0
 20
0.0
 30
0.0
  9
$USERI1
 70
     0
  9
$USERI2
 70
     0
  9
$USERI3
 70
     0
  9
$USERI4
 70
     0
  9
$USERI5
 70
     0
  9
$USERR1
 40
0.0
  9
$USERR2
 40
0.0
  9
$USERR3
 40
0.0
  9
$USERR4
 40
0.0
  9
$USERR5
 40
0.0
  9
$WORLDVIEW
 70
     1
  9
$SHADEDGE
 70
     3
  9
$SHADEDIF
 70
    70
  9
$TILEMODE
 70
     1
  9
$MAXACTVP
 70
    64
  9
$PINSBASE
 10
0.0
 20
0.0
 30
0.0
  9
$PLIMCHECK
 70
     0
  9
$PEXTMIN
 10
-342.5
 20
-212.5
 30
0.0
  9
$PEXTMAX
 10
342.5
 20
212.5
 30
0.0
  9
$PLIMMIN
 10
-395.8073929961
 20
-232.4902723735
  9
$PLIMMAX
 10
395.8073929961
 20
327.2373540856
  9
$UNITMODE
 70
     0
  9
$VISRETAIN
 70
     1
  9
$PLINEGEN
 70
     0
  9
$PSLTSCALE
 70
     1
  9
$TREEDEPTH
 70
  3020
  9
$CMLSTYLE
  2
Standard
  9
$CMLJUST
 70
     0
  9
$CMLSCALE
 40
20.0
  9
$PROXYGRAPHICS
 70
     1
  9
$MEASUREMENT
 70
     1
  9
$CELWEIGHT
370
    -1
  9
$ENDCAPS
280
     0
  9
$JOINSTYLE
280
     0
  9
$LWDISPLAY
290
     1
  9
$INSUNITS
 70
     4
  9
$HYPERLINKBASE
  1

  9
$STYLESHEET
  1

  9
$XEDIT
290
     1
  9
$CEPSNTYPE
380
     0
  9
$PSTYLEMODE
290
     1
  9
$FINGERPRINTGUID
  2
{8848E17D-AD3B-4059-8233-1D2A7130930B}
  9
$VERSIONGUID
  2
{FAEB1C32-E019-11D5-929B-00C0DF256EC4}
  9
$EXTNAMES
290
     1
  9
$PSVPSCALE
 40
0.0
  9
$OLESTARTUP
290
     0
  9
$SORTENTS
280
   127
  9
$INDEXCTL
280
     0
  9
$HIDETEXT
280
     1
  9
$XCLIPFRAME
290
     0
  9
$HALOGAP
280
     0
  9
$OBSCOLOR
 70
   257
  9
$OBSLTYPE
280
     0
  9
$INTERSECTIONDISPLAY
280
     0
  9
$INTERSECTIONCOLOR
 70
   257
  9
$DIMASSOC
280
     2
  9
$PROJECTNAME
  1

  9
$CAMERADISPLAY
290
     0
  9
$LENSLENGTH
 40
50.0
  9
$CAMERAHEIGHT
 40
0.0
  9
$STEPSPERSEC
 40
2.0
  9
$STEPSIZE
 40
6.0
  9
$3DDWFPREC
 40
2.0
  9
$PSOLWIDTH
 40
5.0
  9
$PSOLHEIGHT
 40
80.0
  9
$LOFTANG1
 40
1.5707963268
  9
$LOFTANG2
 40
1.5707963268
  9
$LOFTMAG1
 40
0.0
  9
$LOFTMAG2
 40
0.0
  9
$LOFTPARAM
 70
     7
  9
$LOFTNORMALS
280
     1
  9
$LATITUDE
 40
37.795
  9
$LONGITUDE
 40
-122.394
  9
$NORTHDIRECTION
 40
0.0
  9
$TIMEZONE
 70
 -8000
  9
$LIGHTGLYPHDISPLAY
280
     1
  9
$TILEMODELIGHTSYNCH
280
     1
  9
$CMATERIAL
347
44
  9
$SOLIDHIST
280
     0
  9
$SHOWHIST
280
     1
  9
$DWFFRAME
280
     2
  9
$DGNFRAME
280
     2
  9
$REALWORLDSCALE
290
     1
  9
$INTERFERECOLOR
 62
   256
  9
$CSHADOW
280
     0
  9
$SHADOWPLANELOCATION
 40
0.0
  0
ENDSEC
  0
SECTION
  2
CLASSES
  0
CLASS
  1
ACDBDICTIONARYWDFLT
  2
AcDbDictionaryWithDefault
  3
ObjectDBX Classes
 90
        0
 91
        4
280
     0
281
     0
  0
CLASS
  1
VISUALSTYLE
  2
AcDbVisualStyle
  3
ObjectDBX Classes
 90
     4095
 91
        4
280
     0
281
     0
  0
CLASS
  1
MATERIAL
  2
AcDbMaterial
  3
ObjectDBX Classes
 90
     1153
 91
        4
280
     0
281
     0
  0
CLASS
  1
SCALE
  2
AcDbScale
  3
ObjectDBX Classes
 90
     1153
 91
        4
280
     0
281
     0
  0
CLASS
  1
TABLESTYLE
  2
AcDbTableStyle
  3
ObjectDBX Classes
 90
     4095
 91
        4
280
     0
281
     0
  0
CLASS
  1
MLEADERSTYLE
  2
AcDbMLeaderStyle
  3
ACDB_MLEADERSTYLE_CLASS
 90
     4095
 91
        4
280
     0
281
     0
  0
CLASS
  1
SUN
  2
AcDbSun
  3
SCENEOE
 90
     1153
 91
        4
280
     0
281
     0
  0
CLASS
  1
DICTIONARYVAR
  2
AcDbDictionaryVar
  3
ObjectDBX Classes
 90
        0
 91
        4
280
     0
281
     0
  0
CLASS
  1
CELLSTYLEMAP
  2
AcDbCellStyleMap
  3
ObjectDBX Classes
 90
     1152
 91
        4
280
     0
281
     0
  0
ENDSEC
  0
SECTION
  2
TABLES
  0
TABLE
  2
VPORT
  5
8
330
0
100
AcDbSymbolTable
 70
     1
  0
VPORT
  5
29
330
8
100
AcDbSymbolTableRecord
100
AcDbViewportTableRecord
  2
*Active
 70
     0
 10
0.0
 20
0.0
 11
1.0
 21
1.0
 12
0.0
 22
-12.0574373589
 13
0.0
 23
0.0
 14
10.0
 24
10.0
 15
10.0
 25
10.0
 16
0.0
 26
0.0
 36
1.0
 17
0.0
 27
0.0
 37
0.0
 40
360.0489770476
 41
1.6138985749
 42
50.0
 43
0.0
 44
0.0
 50
0.0
 51
0.0
 71
     0
 72
   100
 73
     1
 74
     3
 75
     0
 76
     0
 77
     0
 78
     0
281
     0
 65
     1
110
0.0
120
0.0
130
0.0
111
1.0
121
0.0
131
0.0
112
0.0
122
1.0
132
0.0
 79
     0
146
0.0
348
2F
 60
     3
 61
     5
292
     1
282
     1
141
0.0
142
0.0
 63
   250
361
6D
  0
ENDTAB
  0
TABLE
  2
LTYPE
  5
5
330
0
100
AcDbSymbolTable
 70
     6
  0
LTYPE
  5
14
330
5
100
AcDbSymbolTableRecord
100
AcDbLinetypeTableRecord
  2
ByBlock
 70
     0
  3

 72
    65
 73
     0
 40
0.0
  0
LTYPE
  5
15
330
5
100
AcDbSymbolTableRecord
100
AcDbLinetypeTableRecord
  2
ByLayer
 70
     0
  3

 72
    65
 73
     0
 40
0.0
  0
LTYPE
  5
16
330
5
100
AcDbSymbolTableRecord
100
AcDbLinetypeTableRecord
  2
Continuous
 70
     0
  3
Solid line
 72
    65
 73
     0
 40
0.0
  0
LTYPE
  5
6E
330
5
100
AcDbSymbolTableRecord
100
AcDbLinetypeTableRecord
  2
HIDDEN
 70
     0
  3
Hidden __ __ __ __ __ __ __ __ __ __ __ __ __ __
 72
    65
 73
     2
 40
1.905
 49
1.27
 74
     0
 49
-0.635
 74
     0
  0
LTYPE
  5
6F
330
5
100
AcDbSymbolTableRecord
100
AcDbLinetypeTableRecord
  2
PHANTOM
 70
     0
  3
Phantom ______  __  __  ______  __  __  ______
 72
    65
 73
     6
 40
12.7
 49
6.35
 74
     0
 49
-1.27
 74
     0
 49
1.27
 74
     0
 49
-1.27
 74
     0
 49
1.27
 74
     0
 49
-1.27
 74
     0
  0
LTYPE
  5
70
330
5
100
AcDbSymbolTableRecord
100
AcDbLinetypeTableRecord
  2
CENTER
 70
     0
  3
Center ____ _ ____ _ ____ _ ____ _ ____ _ ____
 72
    65
 73
     4
 40
10.16
 49
6.35
 74
     0
 49
-1.27
 74
     0
 49
1.27
 74
     0
 49
-1.27
 74
     0
  0
LTYPE
  5
71
330
5
100
AcDbSymbolTableRecord
100
AcDbLinetypeTableRecord
  2
CENTERX2
 70
     0
  3
Center (2x) ________  __  ________  __  _____
 72
    65
 73
     4
 40
20.32
 49
12.7
 74
     0
 49
-2.54
 74
     0
 49
2.54
 74
     0
 49
-2.54
 74
     0
  0
LTYPE
  5
72
330
5
100
AcDbSymbolTableRecord
100
AcDbLinetypeTableRecord
  2
DOT2
 70
     0
  3
Dot (.5x) ........................................
 72
    65
 73
     2
 40
0.635
 49
0.0
 74
     0
 49
-0.635
 74
     0
  0
ENDTAB
  0
TABLE
  2
LAYER
  5
2
330
0
100
AcDbSymbolTable
 70
     1
  0
LAYER
  5
10
330
2
100
AcDbSymbolTableRecord
100
AcDbLayerTableRecord
  2
0
 70
     0
 62
     7
  6
Continuous
370
    -3
390
F
347
46
  0
ENDTAB
  0
TABLE
  2
STYLE
  5
3
330
0
100
AcDbSymbolTable
 70
     1
  0
STYLE
  5
11
330
3
100
AcDbSymbolTableRecord
100
AcDbTextStyleTableRecord
  2
Standard
 70
     0
 40
0.0
 41
1.0
 50
0.0
 71
     0
 42
3.5
  3
txt
  4

  0
ENDTAB
  0
TABLE
  2
VIEW
  5
6
330
0
100
AcDbSymbolTable
 70
     0
  0
ENDTAB
  0
TABLE
  2
UCS
  5
7
330
0
100
AcDbSymbolTable
 70
     0
  0
ENDTAB
  0
TABLE
  2
APPID
  5
9
330
0
100
AcDbSymbolTable
 70
     2
  0
APPID
  5
12
330
9
100
AcDbSymbolTableRecord
100
AcDbRegAppTableRecord
  2
ACAD
 70
     0
  0
APPID
  5
FD
330
9
100
AcDbSymbolTableRecord
100
AcDbRegAppTableRecord
  2
ACAD_MLEADERVER
 70
     0
  0
ENDTAB
  0
TABLE
  2
DIMSTYLE
  5
A
330
0
100
AcDbSymbolTable
 70
     1
100
AcDbDimStyleTable
  0
DIMSTYLE
105
27
330
A
100
AcDbSymbolTableRecord
100
AcDbDimStyleTableRecord
  2
ISO-25
 70
     0
 41
2.5
 42
0.625
 43
3.75
 44
1.25
 73
     0
 74
     0
 77
     1
 78
     8
140
2.5
141
2.5
143
0.0393700787
147
0.625
171
     3
172
     1
178
     0
271
     2
272
     2
274
     3
278
    44
283
     0
284
     8
340
11
  0
ENDTAB
  0
TABLE
  2
BLOCK_RECORD
  5
1
330
0
100
AcDbSymbolTable
 70
     9
  0
BLOCK_RECORD
  5
1F
330
1
100
AcDbSymbolTableRecord
100
AcDbBlockTableRecord
  2
*Model_Space
340
22
 70
     0
280
     1
281
     0
  0
BLOCK_RECORD
  5
1B
330
1
100
AcDbSymbolTableRecord
100
AcDbBlockTableRecord
  2
*Paper_Space
340
1E
 70
     0
280
     1
281
     0
  0
BLOCK_RECORD
  5
23
330
1
100
AcDbSymbolTableRecord
100
AcDbBlockTableRecord
  2
*Paper_Space0
340
26
 70
     0
280
     1
281
     0
  0
BLOCK_RECORD
  5
86
330
1
100
AcDbSymbolTableRecord
100
AcDbBlockTableRecord
  2
*Paper_Space1
340
87
 70
     0
280
     1
281
     0
  0
BLOCK_RECORD
  5
93
330
1
100
AcDbSymbolTableRecord
100
AcDbBlockTableRecord
  2
*Paper_Space2
340
94
 70
     0
280
     1
281
     0
  0
BLOCK_RECORD
  5
A0
330
1
100
AcDbSymbolTableRecord
100
AcDbBlockTableRecord
  2
*Paper_Space3
340
A1
 70
     0
280
     1
281
     0
  0
BLOCK_RECORD
  5
B0
330
1
100
AcDbSymbolTableRecord
100
AcDbBlockTableRecord
  2
*Paper_Space4
340
B1
 70
     0
280
     1
281
     0
  0
BLOCK_RECORD
  5
C3
330
1
100
AcDbSymbolTableRecord
100
AcDbBlockTableRecord
  2
*Paper_Space5
340
C4
 70
     0
280
     1
281
     0
  0
BLOCK_RECORD
  5
CB
330
1
100
AcDbSymbolTableRecord
100
AcDbBlockTableRecord
  2
*Paper_Space6
340
CC
 70
     0
280
     1
281
     0
  0
BLOCK_RECORD
  5
D5
330
1
100
AcDbSymbolTableRecord
100
AcDbBlockTableRecord
  2
*Paper_Space7
340
D6
 70
     0
280
     1
281
     0
  0
BLOCK_RECORD
  5
DE
330
1
100
AcDbSymbolTableRecord
100
AcDbBlockTableRecord
  2
*Paper_Space8
340
DF
 70
     0
280
     1
281
     0
  0
ENDTAB
  0
ENDSEC
  0
SECTION
  2
BLOCKS
  0
BLOCK
  5
20
330
1F
100
AcDbEntity
  8
0
100
AcDbBlockBegin
  2
*Model_Space
 70
     0
 10
0.0
 20
0.0
 30
0.0
  3
*Model_Space
  1

  0
ENDBLK
  5
21
330
1F
100
AcDbEntity
  8
0
100
AcDbBlockEnd
  0
BLOCK
  5
1C
330
1B
100
AcDbEntity
 67
     1
  8
0
100
AcDbBlockBegin
  2
*Paper_Space
 70
     0
 10
0.0
 20
0.0
 30
0.0
  3
*Paper_Space
  1

  0
ENDBLK
  5
1D
330
1B
100
AcDbEntity
 67
     1
  8
0
100
AcDbBlockEnd
  0
BLOCK
  5
24
330
23
100
AcDbEntity
  8
0
100
AcDbBlockBegin
  2
*Paper_Space0
 70
     0
 10
0.0
 20
0.0
 30
0.0
  3
*Paper_Space0
  1

  0
SPLINE
  5
7D
330
23
100
AcDbEntity
  8
0
  6
Continuous
 62
     7
370
    25
100
AcDbSpline
210
0.0
220
0.0
230
1.0
 70
     8
 71
     3
 72
    33
 73
    29
 74
     0
 42
0.000000001
 43
0.00000001
 40
0.0
 40
0.0
 40
0.0
 40
0.0
 40
0.0544596459432284
 40
0.1055592026897313
 40
0.1533517189867715
 40
0.1978795076896807
 40
0.239176061659444
 40
0.2772676399019259
 40
0.3121745840845318
 40
0.3413884462293958
 40
0.3679484417314561
 40
0.3918613827442984
 40
0.4131322688315012
 40
0.4320872001596659
 40
0.4525762017524111
 40
0.4790817876585485
 40
0.5090170499783386
 40
0.5423853903411806
 40
0.5791930604100123
 40
0.6194500034613344
 40
0.6631708358995083
 40
0.7034186856883533
 40
0.7462434863669147
 40
0.7916669368485156
 40
0.8397162956563673
 40
0.8904254609808112
 40
0.9438362616258809
 40
1.0
 40
1.0
 40
1.0
 40
1.0
 10
74.99999999999999
 20
-140.0
 30
0.0
 10
80.57779196610338
 20
-139.3558381352371
 30
0.0
 10
91.38923340156266
 20
-138.1072583534591
 30
0.0
 10
106.9864510808115
 20
-135.4936434003383
 30
0.0
 10
121.4768057393403
 20
-132.5463217593206
 30
0.0
 10
134.8706123951467
 20
-129.3195708677939
 30
0.0
 10
147.1880316633861
 20
-125.9270107640757
 30
0.0
 10
158.4494442461395
 20
-122.4568387802717
 30
0.0
 10
168.430441534637
 20
-119.0762269460834
 30
0.0
 10
177.2095397601269
 20
-115.8627877563628
 30
0.0
 10
184.8627673595425
 20
-112.8765448652681
 30
0.0
 10
191.7003648704126
 20
-110.0566994113486
 30
0.0
 10
197.7690305226103
 20
-107.4315065699696
 30
0.0
 10
203.475131947492
 20
-104.8592093030803
 30
0.0
 10
209.6307841073084
 20
-101.9728026962505
 30
0.0
 10
216.7504512209672
 20
-98.47840368332889
 30
0.0
 10
224.9730791579621
 20
-94.22211994592048
 30
0.0
 10
234.0227030041692
 20
-89.25903809008794
 30
0.0
 10
243.8565114318662
 20
-83.52065442812243
 30
0.0
 10
254.4245998039851
 20
-76.93281095974339
 30
0.0
 10
265.0729631782239
 20
-69.8146742880277
 30
0.0
 10
275.7043082417827
 20
-62.20748282465902
 30
0.0
 10
286.2307425011149
 20
-54.16262720630215
 30
0.0
 10
297.1042143384141
 20
-45.25992074735793
 30
0.0
 10
308.2682778841519
 20
-35.44222395460887
 30
0.0
 10
319.6455609388549
 20
-24.63860975597567
 30
0.0
 10
331.2089522688225
 20
-12.82621854029708
 30
0.0
 10
338.6738020889486
 20
-4.346421320145858
 30
0.0
 10
342.5000000000001
 20
0.0
 30
0.0
  0
SPLINE
  5
7E
330
23
100
AcDbEntity
  8
0
  6
Continuous
 62
     7
370
    25
100
AcDbSpline
210
0.0
220
0.0
230
1.0
 70
     8
 71
     3
 72
    33
 73
    29
 74
     0
 42
0.000000001
 43
0.00000001
 40
0.0
 40
0.0
 40
0.0
 40
0.0
 40
0.0544596459432281
 40
0.1055592026897312
 40
0.1533517189867716
 40
0.1978795076896805
 40
0.2391760616594437
 40
0.2772676399019259
 40
0.3121745840845317
 40
0.3413884462293956
 40
0.367948441731456
 40
0.3918613827442982
 40
0.4131322688315011
 40
0.432087200159666
 40
0.4525762017524111
 40
0.4790817876585484
 40
0.5090170499783387
 40
0.5423853903411806
 40
0.5791930604100122
 40
0.6194500034613343
 40
0.6631708358995082
 40
0.7034186856883533
 40
0.7462434863669146
 40
0.7916669368485155
 40
0.8397162956563673
 40
0.8904254609808114
 40
0.9438362616258811
 40
1.0
 40
1.0
 40
1.0
 40
1.0
 10
-342.5
 20
0.0
 30
0.0
 10
-338.7915447102135
 20
-4.215930157011217
 30
0.0
 10
-331.6034409901038
 20
-12.38767307347496
 30
0.0
 10
-320.5659893503509
 20
-23.71369813777559
 30
0.0
 10
-309.8852200104602
 20
-33.94004886976253
 30
0.0
 10
-299.5998516584702
 20
-43.10613723465263
 30
0.0
 10
-289.7917510990027
 20
-51.29328844263146
 30
0.0
 10
-280.5217707181775
 20
-58.56851838369099
 30
0.0
 10
-272.0551760880648
 20
-64.84272101157894
 30
0.0
 10
-264.4109869349551
 20
-70.22464717888285
 30
0.0
 10
-257.5951887970858
 20
-74.81097850543219
 30
0.0
 10
-251.3809977770218
 20
-78.82197564714194
 30
0.0
 10
-245.7650136441589
 20
-82.31211353439276
 30
0.0
 10
-240.3991424345981
 20
-85.53449353412752
 30
0.0
 10
-234.5189481815435
 20
-88.94722149851997
 30
0.0
 10
-227.5897284018591
 20
-92.80551095314246
 30
0.0
 10
-219.4058401365631
 20
-97.13581513469008
 30
0.0
 10
-210.1698376686978
 20
-101.7427806955682
 30
0.0
 10
-199.8498349765866
 20
-106.5521860308856
 30
0.0
 10
-188.4133430490942
 20
-111.480758420247
 30
0.0
 10
-176.4953729014157
 20
-116.1730392927123
 30
0.0
 10
-164.1852629247018
 20
-120.5725906541593
 30
0.0
 10
-151.5753350722358
 20
-124.636485299921
 30
0.0
 10
-138.0627395571548
 20
-128.4965804459609
 30
0.0
 10
-123.6326991992513
 20
-132.0739286868934
 30
0.0
 10
-108.2710353946461
 20
-135.2645296669634
 30
0.0
 10
-91.974417742626
 20
-138.0330777315774
 30
0.0
 10
-80.75212179192322
 20
-139.3334689522338
 30
0.0
 10
-75.0000000000001
 20
-140.0
 30
0.0
  0
SPLINE
  5
81
330
23
100
AcDbEntity
  8
0
  6
Continuous
 62
     7
370
    25
100
AcDbSpline
210
0.0
220
0.0
230
1.0
 70
    24
 71
     3
 72
    21
 73
    17
 74
     0
 42
0.000000001
 43
0.00000001
 40
0.0
 40
0.0
 40
0.0
 40
0.0
 40
0.0062500000000001
 40
0.0083333333333333
 40
0.0416666666666666
 40
0.0833333333333334
 40
0.125
 40
0.1666666666666666
 40
0.2083333333333334
 40
0.2499999999996538
 40
0.2916666666666666
 40
0.3333333333333334
 40
0.375
 40
0.4166666666666666
 40
0.4583333333333334
 40
0.4999999999999999
 40
0.4999999999999999
 40
0.4999999999999999
 40
0.4999999999999999
 10
342.5000000000001
 20
0.0
 30
0.0
 10
342.5000000000001
 20
0.0
 30
0.0
 10
342.379383817169
 20
0.0
 30
0.0
 10
340.9820045202297
 20
0.0
 30
0.0
 10
332.1773908580587
 20
0.0
 30
0.0
 10
300.2359668465141
 20
0.0
 30
0.0
 10
245.0270232497481
 20
0.0
 30
0.0
 10
172.7603754928497
 20
0.0
 30
0.0
 10
90.13885508194167
 20
0.0
 30
0.0
 10
0.0000000000001483
 20
0.0
 30
0.0
 10
-90.13885508194133
 20
0.0
 30
0.0
 10
-172.7603754928494
 20
0.0
 30
0.0
 10
-245.0270232497477
 20
0.0
 30
0.0
 10
-300.2359668465142
 20
0.0
 30
0.0
 10
-334.4589211445978
 20
0.0
 30
0.0
 10
-342.5
 20
0.0
 30
0.0
 10
-342.5
 20
0.0
 30
0.0
  0
SPLINE
  5
82
330
23
100
AcDbEntity
  8
0
  6
Continuous
 62
     7
370
    25
100
AcDbSpline
210
0.0
220
0.0
230
1.0
 70
    24
 71
     3
 72
    21
 73
    17
 74
     0
 42
0.000000001
 43
0.00000001
 40
0.0
 40
0.0
 40
0.0
 40
0.0
 40
0.0062500000000001
 40
0.0083333333333333
 40
0.0416666666666666
 40
0.0833333333333334
 40
0.125
 40
0.1666666666666666
 40
0.2083333333333334
 40
0.2499999999996538
 40
0.2916666666666666
 40
0.3333333333333334
 40
0.375
 40
0.4166666666666666
 40
0.4583333333333334
 40
0.4999999999999999
 40
0.4999999999999999
 40
0.4999999999999999
 40
0.4999999999999999
 10
74.99999999999999
 20
-140.0
 30
0.0
 10
74.99999999999999
 20
-140.0
 30
0.0
 10
74.97358769719027
 20
-140.0
 30
0.0
 10
74.66759223070719
 20
-140.0
 30
0.0
 10
72.73957464045078
 20
-140.0
 30
0.0
 10
65.7451022291636
 20
-140.0
 30
0.0
 10
53.65555253644105
 20
-140.0
 30
0.0
 10
37.83073915901801
 20
-140.0
 30
0.0
 10
19.73843541940311
 20
-140.0
 30
0.0
 10
-0.0000000000001405
 20
-140.0
 30
0.0
 10
-19.73843541940337
 20
-140.0
 30
0.0
 10
-37.83073915901826
 20
-140.0
 30
0.0
 10
-53.65555253644127
 20
-140.0
 30
0.0
 10
-65.7451022291638
 20
-140.0
 30
0.0
 10
-73.23917981268518
 20
-140.0
 30
0.0
 10
-74.99999999999973
 20
-140.0
 30
0.0
 10
-75.0000000000001
 20
-140.0
 30
0.0
  0
SPLINE
  5
83
330
23
100
AcDbEntity
  8
0
  6
Continuous
 62
     7
370
    25
100
AcDbSpline
210
0.0
220
0.0
230
1.0
 70
    24
 71
     3
 72
    21
 73
    17
 74
     0
 42
0.000000001
 43
0.00000001
 40
0.0
 40
0.0
 40
0.0
 40
0.0
 40
0.0062500000000001
 40
0.0083333333333333
 40
0.0416666666666666
 40
0.0833333333333334
 40
0.125
 40
0.1666666666666666
 40
0.2083333333333334
 40
0.2499999999996538
 40
0.2916666666666666
 40
0.3333333333333334
 40
0.375
 40
0.4166666666666666
 40
0.4583333333333334
 40
0.4999999999999999
 40
0.4999999999999999
 40
0.4999999999999999
 40
0.4999999999999999
 10
75.0
 20
-145.0
 30
0.0
 10
74.99999999999983
 20
-145.0
 30
0.0
 10
74.97312537457296
 20
-145.0
 30
0.0
 10
74.66205199857794
 20
-145.0
 30
0.0
 10
72.70371807169154
 20
-145.0
 30
0.0
 10
65.63875480695735
 20
-145.0
 30
0.0
 10
53.52787422140864
 20
-145.0
 30
0.0
 10
37.73746643098969
 20
-145.0
 30
0.0
 10
19.66517573985884
 20
-145.0
 30
0.0
 10
-0.000000000008684
 20
-145.0000000000001
 30
0.0
 10
-19.66517573987588
 20
-145.0000000000001
 30
0.0
 10
-37.73746643101205
 20
-145.0
 30
0.0
 10
-53.52787422142682
 20
-145.0
 30
0.0
 10
-65.63875480697027
 20
-145.0000000000001
 30
0.0
 10
-73.2083583048921
 20
-145.0000000000001
 30
0.0
 10
-75.00000000000014
 20
-145.0000000000001
 30
0.0
 10
-75.0000000000001
 20
-145.0000000000001
 30
0.0
  0
LINE
  5
84
330
23
100
AcDbEntity
  8
0
  6
Continuous
 62
     7
370
    25
100
AcDbLine
 10
75.0
 20
-145.0
 30
0.0
 11
75.0
 21
-140.0
 31
0.0
  0
LINE
  5
85
330
23
100
AcDbEntity
  8
0
  6
Continuous
 62
     7
370
    25
100
AcDbLine
 10
-75.0
 20
-140.0
 30
0.0
 11
-75.0
 21
-145.0
 31
0.0
  0
VIEWPORT
  5
E7
330
23
100
AcDbEntity
  8
0
100
AcDbViewport
 10
0.0
 20
0.0
 30
0.0
 40
205.6
 41
156.0
 68
     1
 69
     1
 12
0.0
 22
-12.0574373589
 13
0.0
 23
0.0
 14
10.0
 24
10.0
 15
10.0
 25
10.0
 16
0.0
 26
0.0
 36
1.0
 17
0.0
 27
0.0
 37
0.0
 42
50.0
 43
0.0
 44
0.0
 45
440.8991966491
 50
0.0
 51
0.0
 72
   100
 90
   557152
  1

281
     0
 71
     1
 74
     0
110
0.0
120
0.0
130
0.0
111
1.0
121
0.0
131
0.0
112
0.0
122
1.0
132
0.0
 79
     0
146
0.0
170
     0
 61
     5
348
2F
292
     1
282
     1
141
0.0
142
0.0
 63
   256
361
E8
  0
ENDBLK
  5
25
330
23
100
AcDbEntity
  8
0
100
AcDbBlockEnd
  0
BLOCK
  5
88
330
86
100
AcDbEntity
  8
0
100
AcDbBlockBegin
  2
*Paper_Space1
 70
     0
 10
0.0
 20
0.0
 30
0.0
  3
*Paper_Space1
  1

  0
SPLINE
  5
8A
330
86
100
AcDbEntity
  8
0
  6
Continuous
 62
     7
370
    25
100
AcDbSpline
210
0.0
220
0.0
230
1.0
 70
     8
 71
     3
 72
    32
 73
    28
 74
     0
 42
0.000000001
 43
0.00000001
 40
0.0
 40
0.0
 40
0.0
 40
0.0
 40
0.0574943036231107
 40
0.1109574962619663
 40
0.1605711904983775
 40
0.2064722288260262
 40
0.2487630362607276
 40
0.2875197252579978
 40
0.3227983591879905
 40
0.354639756132202
 40
0.3830731663211704
 40
0.4081190980904911
 40
0.4298851087703293
 40
0.4527035150113317
 40
0.4789289145036583
 40
0.5085641926771917
 40
0.5416170919800505
 40
0.5781019593214213
 40
0.6180419173264925
 40
0.6614716533301841
 40
0.7084410968058421
 40
0.759020341541096
 40
0.8133062565965953
 40
0.8565352695009308
 40
0.9019961471535106
 40
0.9497799184587051
 40
1.0
 40
1.0
 40
1.0
 40
1.0
 10
49.99999999999999
 20
-140.0
 30
0.0
 10
54.35911955781248
 20
-139.5079626180206
 30
0.0
 10
62.77172674777107
 20
-138.5583861812032
 30
0.0
 10
74.78786049401738
 20
-136.1235450316467
 30
0.0
 10
85.77611812491864
 20
-133.2119647410542
 30
0.0
 10
95.7600189510998
 20
-129.9080161834447
 30
0.0
 10
104.7766144947905
 20
-126.3688587203573
 30
0.0
 10
112.86456366849
 20
-122.7141126514389
 30
0.0
 10
120.0651574509844
 20
-119.0538458739309
 30
0.0
 10
126.420411352884
 20
-115.4834576053531
 30
0.0
 10
131.971992578269
 20
-112.0862585109083
 30
0.0
 10
136.7660680603322
 20
-108.9301685219093
 30
0.0
 10
141.1158971059517
 20
-105.8826545431816
 30
0.0
 10
145.452466788336
 20
-102.6628640299872
 30
0.0
 10
150.1606547056473
 20
-98.94084733894508
 30
0.0
 10
155.3333593165986
 20
-94.5535397341082
 30
0.0
 10
160.9096081228938
 20
-89.44018555091853
 30
0.0
 10
166.8176936341946
 20
-83.53617716549982
 30
0.0
 10
172.9739615603482
 20
-76.77406521886189
 30
0.0
 10
179.2814901074827
 20
-69.08469709027956
 30
0.0
 10
185.6285255577108
 20
-60.39834465640883
 30
0.0
 10
191.8872432489142
 20
-50.64637961125712
 30
0.0
 10
197.3599373211642
 20
-40.75599868258595
 30
0.0
 10
202.0573128598437
 20
-30.90920786946895
 30
0.0
 10
206.0059733038333
 20
-21.27422614833361
 30
0.0
 10
209.6109146159526
 20
-10.93302015158753
 30
0.0
 10
211.5211425424247
 20
-3.704240922851904
 30
0.0
 10
212.5
 20
0.0
 30
0.0
  0
SPLINE
  5
8B
330
86
100
AcDbEntity
  8
0
  6
Continuous
 62
     7
370
    25
100
AcDbSpline
210
0.0
220
0.0
230
1.0
 70
     8
 71
     3
 72
    32
 73
    28
 74
     0
 42
0.000000001
 43
0.00000001
 40
0.0
 40
0.0
 40
0.0
 40
0.0
 40
0.0574943036231108
 40
0.1109574962619664
 40
0.1605711904983776
 40
0.2064722288260261
 40
0.2487630362607276
 40
0.2875197252579979
 40
0.3227983591879905
 40
0.3546397561322021
 40
0.3830731663211705
 40
0.4081190980904913
 40
0.4298851087703295
 40
0.4527035150113319
 40
0.4789289145036583
 40
0.5085641926771917
 40
0.5416170919800506
 40
0.5781019593214215
 40
0.6180419173264927
 40
0.6614716533301843
 40
0.7084410968058422
 40
0.759020341541096
 40
0.8133062565965954
 40
0.856535269500931
 40
0.9019961471535105
 40
0.9497799184587052
 40
1.0
 40
1.0
 40
1.0
 40
1.0
 10
-212.5000000000001
 20
0.0
 30
0.0
 10
-211.3684807309785
 20
-4.238359145754559
 30
0.0
 10
-209.1847766568181
 20
-12.41791241340899
 30
0.0
 10
-204.9990392273337
 20
-23.94160643063579
 30
0.0
 10
-200.4938745655263
 20
-34.37820534606924
 30
0.0
 10
-195.7492456429466
 20
-43.76345164893058
 30
0.0
 10
-190.915100978043
 20
-52.15723959632435
 30
0.0
 10
-186.1040253046448
 20
-59.61549954952103
 30
0.0
 10
-181.4187666754648
 20
-66.1953517728403
 30
0.0
 10
-176.9474586881783
 20
-71.95246297802265
 30
0.0
 10
-172.7663309389591
 20
-76.94036700015987
 30
0.0
 10
-168.9357259505228
 20
-81.2147709549759
 30
0.0
 10
-165.2782248506971
 20
-85.06587987078566
 30
0.0
 10
-161.4523045518013
 20
-88.87838841838634
 30
0.0
 10
-157.074706650329
 20
-92.98412566352722
 30
0.0
 10
-151.9704171944752
 20
-97.4508437162452
 30
0.0
 10
-146.0883694558968
 20
-102.2092527101776
 30
0.0
 10
-139.3752752883034
 20
-107.1788760481138
 30
0.0
 10
-131.7768035123076
 20
-112.2670013833277
 30
0.0
 10
-123.2389012484971
 20
-117.3675428764825
 30
0.0
 10
-113.7091407099999
 20
-122.3596608328982
 30
0.0
 10
-103.1385593902846
 20
-127.1067841663842
 30
0.0
 10
-92.54737109991552
 20
-131.0560557347387
 30
0.0
 10
-82.11399532473366
 20
-134.2449891304869
 30
0.0
 10
-72.00086420757972
 20
-136.7247816774137
 30
0.0
 10
-61.2401305103634
 20
-138.7601572271721
 30
0.0
 10
-53.8082936679339
 20
-139.5799261070287
 30
0.0
 10
-50.00000000000004
 20
-140.0
 30
0.0
  0
SPLINE
  5
8E
330
86
100
AcDbEntity
  8
0
  6
Continuous
 62
     7
370
    25
100
AcDbSpline
210
0.0
220
0.0
230
1.0
 70
    24
 71
     3
 72
    19
 73
    15
 74
     0
 42
0.000000001
 43
0.00000001
 40
0.2499999999996538
 40
0.2499999999996538
 40
0.2499999999996538
 40
0.2499999999996538
 40
0.2916666666666666
 40
0.3333333333333334
 40
0.375
 40
0.4166666666666666
 40
0.4583333333333334
 40
0.4999999999999999
 40
0.5416666666666667
 40
0.5833333333333333
 40
0.625
 40
0.6666666666666667
 40
0.7083333333333333
 40
0.7499999999996151
 40
0.7499999999996151
 40
0.7499999999996151
 40
0.7499999999996151
 10
212.5
 20
0.0
 30
0.0
 10
212.4999999999793
 20
0.0
 30
0.0
 10
207.5110094692171
 20
0.0
 30
0.0
 10
186.2777896492971
 20
0.0
 30
0.0
 10
152.0240655199166
 20
0.0
 30
0.0
 10
107.1870942838847
 20
0.0
 30
0.0
 10
55.92556702164246
 20
0.0
 30
0.0
 10
-0.0000000000000301
 20
0.0
 30
0.0
 10
-55.92556702164251
 20
0.0
 30
0.0
 10
-107.1870942838847
 20
0.0
 30
0.0
 10
-152.0240655199166
 20
0.0
 30
0.0
 10
-186.2777896492971
 20
0.0
 30
0.0
 10
-207.5110094693081
 20
0.0
 30
0.0
 10
-212.4999999999997
 20
0.0
 30
0.0
 10
-212.5000000000001
 20
0.0
 30
0.0
  0
SPLINE
  5
8F
330
86
100
AcDbEntity
  8
0
  6
Continuous
 62
     7
370
    25
100
AcDbSpline
210
0.0
220
0.0
230
1.0
 70
    24
 71
     3
 72
    19
 73
    15
 74
     0
 42
0.000000001
 43
0.00000001
 40
0.2499999999996538
 40
0.2499999999996538
 40
0.2499999999996538
 40
0.2499999999996538
 40
0.2916666666666666
 40
0.3333333333333334
 40
0.375
 40
0.4166666666666666
 40
0.4583333333333334
 40
0.4999999999999999
 40
0.5416666666666667
 40
0.5833333333333333
 40
0.625
 40
0.6666666666666667
 40
0.7083333333333333
 40
0.7499999999996151
 40
0.7499999999996151
 40
0.7499999999996151
 40
0.7499999999996151
 10
49.99999999999999
 20
-140.0
 30
0.0
 10
49.9999999999951
 20
-140.0
 30
0.0
 10
48.8261198751099
 20
-140.0
 30
0.0
 10
43.83006815277572
 20
-140.0
 30
0.0
 10
35.77036835762737
 20
-140.0
 30
0.0
 10
25.22049277267871
 20
-140.0
 30
0.0
 10
13.15895694626876
 20
-140.0
 30
0.0
 10
-0.0000000000000772
 20
-140.0
 30
0.0
 10
-13.1589569462689
 20
-140.0
 30
0.0
 10
-25.22049277267882
 20
-140.0
 30
0.0
 10
-35.77036835762749
 20
-140.0
 30
0.0
 10
-43.83006815277582
 20
-140.0
 30
0.0
 10
-48.82611987513148
 20
-140.0
 30
0.0
 10
-50.00000000000003
 20
-140.0
 30
0.0
 10
-50.00000000000003
 20
-140.0
 30
0.0
  0
SPLINE
  5
90
330
86
100
AcDbEntity
  8
0
  6
Continuous
 62
     7
370
    25
100
AcDbSpline
210
0.0
220
0.0
230
1.0
 70
    24
 71
     3
 72
    19
 73
    15
 74
     0
 42
0.000000001
 43
0.00000001
 40
0.2499999999996538
 40
0.2499999999996538
 40
0.2499999999996538
 40
0.2499999999996538
 40
0.2916666666666666
 40
0.3333333333333334
 40
0.375
 40
0.4166666666666666
 40
0.4583333333333334
 40
0.4999999999999999
 40
0.5416666666666667
 40
0.5833333333333333
 40
0.625
 40
0.6666666666666667
 40
0.7083333333333333
 40
0.7499999999996151
 40
0.7499999999996151
 40
0.7499999999996151
 40
0.7499999999996151
 10
49.99999999999999
 20
-145.0
 30
0.0
 10
49.99999999999522
 20
-145.0000000000001
 30
0.0
 10
48.80797995955402
 20
-145.0000000000001
 30
0.0
 10
43.76940283561461
 20
-145.0
 30
0.0
 10
35.70451153140299
 20
-145.0
 30
0.0
 10
25.18118463891956
 20
-145.0000000000001
 30
0.0
 10
13.1245636977552
 20
-145.0000000000001
 30
0.0
 10
-0.0000000000000587
 20
-145.0000000000001
 30
0.0
 10
-13.12456369775548
 20
-145.0
 30
0.0
 10
-25.18118463892021
 20
-145.0000000000001
 30
0.0
 10
-35.70451153140403
 20
-145.0000000000001
 30
0.0
 10
-43.76940283561581
 20
-145.0
 30
0.0
 10
-48.80797995957488
 20
-145.0
 30
0.0
 10
-50.00000000000003
 20
-145.0
 30
0.0
 10
-50.00000000000004
 20
-145.0
 30
0.0
  0
LINE
  5
91
330
86
100
AcDbEntity
  8
0
  6
Continuous
 62
     7
370
    25
100
AcDbLine
 10
50.0
 20
-145.0
 30
0.0
 11
50.0
 21
-140.0
 31
0.0
  0
LINE
  5
92
330
86
100
AcDbEntity
  8
0
  6
Continuous
 62
     7
370
    25
100
AcDbLine
 10
-50.0
 20
-140.0
 30
0.0
 11
-50.0
 21
-145.0
 31
0.0
  0
VIEWPORT
  5
E9
330
86
100
AcDbEntity
  8
0
100
AcDbViewport
 10
0.0
 20
0.0
 30
0.0
 40
205.6
 41
156.0
 68
     1
 69
     1
 12
0.0
 22
-12.0574373589
 13
0.0
 23
0.0
 14
10.0
 24
10.0
 15
10.0
 25
10.0
 16
0.0
 26
0.0
 36
1.0
 17
0.0
 27
0.0
 37
0.0
 42
50.0
 43
0.0
 44
0.0
 45
440.8991966491
 50
0.0
 51
0.0
 72
   100
 90
   557152
  1

281
     0
 71
     1
 74
     0
110
0.0
120
0.0
130
0.0
111
1.0
121
0.0
131
0.0
112
0.0
122
1.0
132
0.0
 79
     0
146
0.0
170
     0
 61
     5
348
2F
292
     1
282
     1
141
0.0
142
0.0
 63
   256
361
EA
  0
ENDBLK
  5
89
330
86
100
AcDbEntity
  8
0
100
AcDbBlockEnd
  0
BLOCK
  5
95
330
93
100
AcDbEntity
  8
0
100
AcDbBlockBegin
  2
*Paper_Space2
 70
     0
 10
0.0
 20
0.0
 30
0.0
  3
*Paper_Space2
  1

  0
SPLINE
  5
97
330
93
100
AcDbEntity
  8
0
  6
Continuous
 62
     7
370
    25
100
AcDbSpline
210
0.0
220
0.0
230
1.0
 70
     8
 71
     3
 72
    33
 73
    29
 74
     0
 42
0.000000001
 43
0.00000001
 40
0.0
 40
0.0
 40
0.0
 40
0.0
 40
0.0544596459432284
 40
0.1055592026897313
 40
0.1533517189867715
 40
0.1978795076896807
 40
0.239176061659444
 40
0.2772676399019259
 40
0.3121745840845318
 40
0.3413884462293958
 40
0.3679484417314561
 40
0.3918613827442984
 40
0.4131322688315012
 40
0.4320872001596659
 40
0.4525762017524111
 40
0.4790817876585485
 40
0.5090170499783386
 40
0.5423853903411806
 40
0.5791930604100123
 40
0.6194500034613344
 40
0.6631708358995083
 40
0.7034186856883533
 40
0.7462434863669147
 40
0.7916669368485156
 40
0.8397162956563673
 40
0.8904254609808112
 40
0.9438362616258809
 40
1.0
 40
1.0
 40
1.0
 40
1.0
 10
74.99999999999999
 20
-140.0
 30
0.0
 10
80.57779196610338
 20
-139.3558381352371
 30
0.0
 10
91.38923340156266
 20
-138.1072583534591
 30
0.0
 10
106.9864510808115
 20
-135.4936434003383
 30
0.0
 10
121.4768057393403
 20
-132.5463217593206
 30
0.0
 10
134.8706123951467
 20
-129.3195708677939
 30
0.0
 10
147.1880316633861
 20
-125.9270107640757
 30
0.0
 10
158.4494442461395
 20
-122.4568387802717
 30
0.0
 10
168.430441534637
 20
-119.0762269460834
 30
0.0
 10
177.2095397601269
 20
-115.8627877563628
 30
0.0
 10
184.8627673595425
 20
-112.8765448652681
 30
0.0
 10
191.7003648704126
 20
-110.0566994113486
 30
0.0
 10
197.7690305226103
 20
-107.4315065699696
 30
0.0
 10
203.475131947492
 20
-104.8592093030803
 30
0.0
 10
209.6307841073084
 20
-101.9728026962505
 30
0.0
 10
216.7504512209672
 20
-98.47840368332889
 30
0.0
 10
224.9730791579621
 20
-94.22211994592048
 30
0.0
 10
234.0227030041692
 20
-89.25903809008794
 30
0.0
 10
243.8565114318662
 20
-83.52065442812243
 30
0.0
 10
254.4245998039851
 20
-76.93281095974339
 30
0.0
 10
265.0729631782239
 20
-69.8146742880277
 30
0.0
 10
275.7043082417827
 20
-62.20748282465902
 30
0.0
 10
286.2307425011149
 20
-54.16262720630215
 30
0.0
 10
297.1042143384141
 20
-45.25992074735793
 30
0.0
 10
308.2682778841519
 20
-35.44222395460887
 30
0.0
 10
319.6455609388549
 20
-24.63860975597567
 30
0.0
 10
331.2089522688225
 20
-12.82621854029708
 30
0.0
 10
338.6738020889486
 20
-4.346421320145858
 30
0.0
 10
342.5000000000001
 20
0.0
 30
0.0
  0
SPLINE
  5
98
330
93
100
AcDbEntity
  8
0
  6
Continuous
 62
     7
370
    25
100
AcDbSpline
210
0.0
220
0.0
230
1.0
 70
     8
 71
     3
 72
    33
 73
    29
 74
     0
 42
0.000000001
 43
0.00000001
 40
0.0
 40
0.0
 40
0.0
 40
0.0
 40
0.0544596459432281
 40
0.1055592026897312
 40
0.1533517189867716
 40
0.1978795076896805
 40
0.2391760616594437
 40
0.2772676399019259
 40
0.3121745840845317
 40
0.3413884462293956
 40
0.367948441731456
 40
0.3918613827442982
 40
0.4131322688315011
 40
0.432087200159666
 40
0.4525762017524111
 40
0.4790817876585484
 40
0.5090170499783387
 40
0.5423853903411806
 40
0.5791930604100122
 40
0.6194500034613343
 40
0.6631708358995082
 40
0.7034186856883533
 40
0.7462434863669146
 40
0.7916669368485155
 40
0.8397162956563673
 40
0.8904254609808114
 40
0.9438362616258811
 40
1.0
 40
1.0
 40
1.0
 40
1.0
 10
-342.5
 20
0.0
 30
0.0
 10
-338.7915447102135
 20
-4.215930157011217
 30
0.0
 10
-331.6034409901038
 20
-12.38767307347496
 30
0.0
 10
-320.5659893503509
 20
-23.71369813777559
 30
0.0
 10
-309.8852200104602
 20
-33.94004886976253
 30
0.0
 10
-299.5998516584702
 20
-43.10613723465263
 30
0.0
 10
-289.7917510990027
 20
-51.29328844263146
 30
0.0
 10
-280.5217707181775
 20
-58.56851838369099
 30
0.0
 10
-272.0551760880648
 20
-64.84272101157894
 30
0.0
 10
-264.4109869349551
 20
-70.22464717888285
 30
0.0
 10
-257.5951887970858
 20
-74.81097850543219
 30
0.0
 10
-251.3809977770218
 20
-78.82197564714194
 30
0.0
 10
-245.7650136441589
 20
-82.31211353439276
 30
0.0
 10
-240.3991424345981
 20
-85.53449353412752
 30
0.0
 10
-234.5189481815435
 20
-88.94722149851997
 30
0.0
 10
-227.5897284018591
 20
-92.80551095314246
 30
0.0
 10
-219.4058401365631
 20
-97.13581513469008
 30
0.0
 10
-210.1698376686978
 20
-101.7427806955682
 30
0.0
 10
-199.8498349765866
 20
-106.5521860308856
 30
0.0
 10
-188.4133430490942
 20
-111.480758420247
 30
0.0
 10
-176.4953729014157
 20
-116.1730392927123
 30
0.0
 10
-164.1852629247018
 20
-120.5725906541593
 30
0.0
 10
-151.5753350722358
 20
-124.636485299921
 30
0.0
 10
-138.0627395571548
 20
-128.4965804459609
 30
0.0
 10
-123.6326991992513
 20
-132.0739286868934
 30
0.0
 10
-108.2710353946461
 20
-135.2645296669634
 30
0.0
 10
-91.974417742626
 20
-138.0330777315774
 30
0.0
 10
-80.75212179192322
 20
-139.3334689522338
 30
0.0
 10
-75.0000000000001
 20
-140.0
 30
0.0
  0
SPLINE
  5
9B
330
93
100
AcDbEntity
  8
0
  6
Continuous
 62
     7
370
    25
100
AcDbSpline
210
0.0
220
0.0
230
1.0
 70
    24
 71
     3
 72
    21
 73
    17
 74
     0
 42
0.000000001
 43
0.00000001
 40
0.0
 40
0.0
 40
0.0
 40
0.0
 40
0.0062500000000001
 40
0.0083333333333333
 40
0.0416666666666666
 40
0.0833333333333334
 40
0.125
 40
0.1666666666666666
 40
0.2083333333333334
 40
0.2499999999996538
 40
0.2916666666666666
 40
0.3333333333333334
 40
0.375
 40
0.4166666666666666
 40
0.4583333333333334
 40
0.4999999999999999
 40
0.4999999999999999
 40
0.4999999999999999
 40
0.4999999999999999
 10
342.5000000000001
 20
0.0
 30
0.0
 10
342.5000000000001
 20
0.0
 30
0.0
 10
342.379383817169
 20
0.0
 30
0.0
 10
340.9820045202297
 20
0.0
 30
0.0
 10
332.1773908580587
 20
0.0
 30
0.0
 10
300.2359668465141
 20
0.0
 30
0.0
 10
245.0270232497481
 20
0.0
 30
0.0
 10
172.7603754928497
 20
0.0
 30
0.0
 10
90.13885508194167
 20
0.0
 30
0.0
 10
0.0000000000001483
 20
0.0
 30
0.0
 10
-90.13885508194133
 20
0.0
 30
0.0
 10
-172.7603754928494
 20
0.0
 30
0.0
 10
-245.0270232497477
 20
0.0
 30
0.0
 10
-300.2359668465142
 20
0.0
 30
0.0
 10
-334.4589211445978
 20
0.0
 30
0.0
 10
-342.5
 20
0.0
 30
0.0
 10
-342.5
 20
0.0
 30
0.0
  0
SPLINE
  5
9C
330
93
100
AcDbEntity
  8
0
  6
Continuous
 62
     7
370
    25
100
AcDbSpline
210
0.0
220
0.0
230
1.0
 70
    24
 71
     3
 72
    21
 73
    17
 74
     0
 42
0.000000001
 43
0.00000001
 40
0.0
 40
0.0
 40
0.0
 40
0.0
 40
0.0062500000000001
 40
0.0083333333333333
 40
0.0416666666666666
 40
0.0833333333333334
 40
0.125
 40
0.1666666666666666
 40
0.2083333333333334
 40
0.2499999999996538
 40
0.2916666666666666
 40
0.3333333333333334
 40
0.375
 40
0.4166666666666666
 40
0.4583333333333334
 40
0.4999999999999999
 40
0.4999999999999999
 40
0.4999999999999999
 40
0.4999999999999999
 10
74.99999999999999
 20
-140.0
 30
0.0
 10
74.99999999999999
 20
-140.0
 30
0.0
 10
74.97358769719027
 20
-140.0
 30
0.0
 10
74.66759223070719
 20
-140.0
 30
0.0
 10
72.73957464045078
 20
-140.0
 30
0.0
 10
65.7451022291636
 20
-140.0
 30
0.0
 10
53.65555253644105
 20
-140.0
 30
0.0
 10
37.83073915901801
 20
-140.0
 30
0.0
 10
19.73843541940311
 20
-140.0
 30
0.0
 10
-0.0000000000001405
 20
-140.0
 30
0.0
 10
-19.73843541940337
 20
-140.0
 30
0.0
 10
-37.83073915901826
 20
-140.0
 30
0.0
 10
-53.65555253644127
 20
-140.0
 30
0.0
 10
-65.7451022291638
 20
-140.0
 30
0.0
 10
-73.23917981268518
 20
-140.0
 30
0.0
 10
-74.99999999999973
 20
-140.0
 30
0.0
 10
-75.0000000000001
 20
-140.0
 30
0.0
  0
SPLINE
  5
9D
330
93
100
AcDbEntity
  8
0
  6
Continuous
 62
     7
370
    25
100
AcDbSpline
210
0.0
220
0.0
230
1.0
 70
    24
 71
     3
 72
    21
 73
    17
 74
     0
 42
0.000000001
 43
0.00000001
 40
0.0
 40
0.0
 40
0.0
 40
0.0
 40
0.0062500000000001
 40
0.0083333333333333
 40
0.0416666666666666
 40
0.0833333333333334
 40
0.125
 40
0.1666666666666666
 40
0.2083333333333334
 40
0.2499999999996538
 40
0.2916666666666666
 40
0.3333333333333334
 40
0.375
 40
0.4166666666666666
 40
0.4583333333333334
 40
0.4999999999999999
 40
0.4999999999999999
 40
0.4999999999999999
 40
0.4999999999999999
 10
75.0
 20
-145.0
 30
0.0
 10
74.99999999999983
 20
-145.0
 30
0.0
 10
74.97312537457296
 20
-145.0
 30
0.0
 10
74.66205199857794
 20
-145.0
 30
0.0
 10
72.70371807169154
 20
-145.0
 30
0.0
 10
65.63875480695735
 20
-145.0
 30
0.0
 10
53.52787422140864
 20
-145.0
 30
0.0
 10
37.73746643098969
 20
-145.0
 30
0.0
 10
19.66517573985884
 20
-145.0
 30
0.0
 10
-0.000000000008684
 20
-145.0000000000001
 30
0.0
 10
-19.66517573987588
 20
-145.0000000000001
 30
0.0
 10
-37.73746643101205
 20
-145.0
 30
0.0
 10
-53.52787422142682
 20
-145.0
 30
0.0
 10
-65.63875480697027
 20
-145.0000000000001
 30
0.0
 10
-73.2083583048921
 20
-145.0000000000001
 30
0.0
 10
-75.00000000000014
 20
-145.0000000000001
 30
0.0
 10
-75.0000000000001
 20
-145.0000000000001
 30
0.0
  0
LINE
  5
9E
330
93
100
AcDbEntity
  8
0
  6
Continuous
 62
     7
370
    25
100
AcDbLine
 10
75.0
 20
-145.0
 30
0.0
 11
75.0
 21
-140.0
 31
0.0
  0
LINE
  5
9F
330
93
100
AcDbEntity
  8
0
  6
Continuous
 62
     7
370
    25
100
AcDbLine
 10
-75.0
 20
-140.0
 30
0.0
 11
-75.0
 21
-145.0
 31
0.0
  0
VIEWPORT
  5
EB
330
93
100
AcDbEntity
  8
0
100
AcDbViewport
 10
0.0
 20
0.0
 30
0.0
 40
205.6
 41
156.0
 68
     1
 69
     1
 12
0.0
 22
-12.0574373589
 13
0.0
 23
0.0
 14
10.0
 24
10.0
 15
10.0
 25
10.0
 16
0.0
 26
0.0
 36
1.0
 17
0.0
 27
0.0
 37
0.0
 42
50.0
 43
0.0
 44
0.0
 45
440.8991966491
 50
0.0
 51
0.0
 72
   100
 90
   557152
  1

281
     0
 71
     1
 74
     0
110
0.0
120
0.0
130
0.0
111
1.0
121
0.0
131
0.0
112
0.0
122
1.0
132
0.0
 79
     0
146
0.0
170
     0
 61
     5
348
2F
292
     1
282
     1
141
0.0
142
0.0
 63
   256
361
EC
  0
ENDBLK
  5
96
330
93
100
AcDbEntity
  8
0
100
AcDbBlockEnd
  0
BLOCK
  5
A2
330
A0
100
AcDbEntity
  8
0
100
AcDbBlockBegin
  2
*Paper_Space3
 70
     0
 10
0.0
 20
0.0
 30
0.0
  3
*Paper_Space3
  1

  0
SPLINE
  5
A4
330
A0
100
AcDbEntity
  8
0
  6
Continuous
 62
     7
370
    25
100
AcDbSpline
210
0.0
220
0.0
230
1.0
 70
     8
 71
     3
 72
    33
 73
    29
 74
     0
 42
0.000000001
 43
0.00000001
 40
0.0
 40
0.0
 40
0.0
 40
0.0
 40
0.0544596459432283
 40
0.1055592026897312
 40
0.1533517189867716
 40
0.1978795076896807
 40
0.239176061659444
 40
0.277267639901926
 40
0.3121745840845318
 40
0.341388446229396
 40
0.3679484417314561
 40
0.3918613827442983
 40
0.4131322688315014
 40
0.432087200159666
 40
0.452576201752411
 40
0.4790817876585485
 40
0.5090170499783386
 40
0.5423853903411806
 40
0.5791930604100122
 40
0.6194500034613342
 40
0.663170835899508
 40
0.7034186856883532
 40
0.7462434863669145
 40
0.7916669368485155
 40
0.8397162956563673
 40
0.890425460980811
 40
0.9438362616258809
 40
1.0
 40
1.0
 40
1.0
 40
1.0
 10
75.00000000000011
 20
-140.0
 30
0.0
 10
80.57779196610349
 20
-139.3558381352371
 30
0.0
 10
91.38923340156273
 20
-138.107258353459
 30
0.0
 10
106.9864510808116
 20
-135.4936434003383
 30
0.0
 10
121.4768057393404
 20
-132.5463217593206
 30
0.0
 10
134.8706123951468
 20
-129.3195708677939
 30
0.0
 10
147.1880316633861
 20
-125.9270107640755
 30
0.0
 10
158.4494442461396
 20
-122.4568387802717
 30
0.0
 10
168.430441534637
 20
-119.0762269460833
 30
0.0
 10
177.2095397601271
 20
-115.8627877563629
 30
0.0
 10
184.8627673595425
 20
-112.8765448652679
 30
0.0
 10
191.7003648704127
 20
-110.0566994113485
 30
0.0
 10
197.7690305226104
 20
-107.4315065699696
 30
0.0
 10
203.4751319474921
 20
-104.8592093030802
 30
0.0
 10
209.6307841073084
 20
-101.9728026962504
 30
0.0
 10
216.7504512209673
 20
-98.47840368332888
 30
0.0
 10
224.9730791579622
 20
-94.22211994592041
 30
0.0
 10
234.0227030041692
 20
-89.25903809008788
 30
0.0
 10
243.8565114318663
 20
-83.52065442812238
 30
0.0
 10
254.4245998039851
 20
-76.93281095974342
 30
0.0
 10
265.072963178224
 20
-69.81467428802766
 30
0.0
 10
275.7043082417826
 20
-62.20748282465898
 30
0.0
 10
286.2307425011149
 20
-54.16262720630207
 30
0.0
 10
297.1042143384141
 20
-45.25992074735791
 30
0.0
 10
308.2682778841519
 20
-35.4422239546089
 30
0.0
 10
319.6455609388549
 20
-24.63860975597558
 30
0.0
 10
331.2089522688225
 20
-12.82621854029712
 30
0.0
 10
338.6738020889485
 20
-4.346421320145858
 30
0.0
 10
342.5
 20
0.0
 30
0.0
  0
SPLINE
  5
A5
330
A0
100
AcDbEntity
  8
0
  6
Continuous
 62
     7
370
    25
100
AcDbSpline
210
0.0
220
0.0
230
1.0
 70
     8
 71
     3
 72
    33
 73
    29
 74
     0
 42
0.000000001
 43
0.00000001
 40
0.0
 40
0.0
 40
0.0
 40
0.0
 40
0.0544596459432282
 40
0.1055592026897312
 40
0.1533517189867715
 40
0.1978795076896806
 40
0.239176061659444
 40
0.2772676399019258
 40
0.3121745840845316
 40
0.341388446229396
 40
0.367948441731456
 40
0.3918613827442984
 40
0.4131322688315012
 40
0.4320872001596661
 40
0.4525762017524113
 40
0.4790817876585485
 40
0.5090170499783387
 40
0.5423853903411807
 40
0.5791930604100124
 40
0.6194500034613345
 40
0.6631708358995082
 40
0.7034186856883535
 40
0.7462434863669151
 40
0.7916669368485157
 40
0.8397162956563673
 40
0.8904254609808114
 40
0.9438362616258811
 40
1.0
 40
1.0
 40
1.0
 40
1.0
 10
-342.5000000000001
 20
0.0
 30
0.0
 10
-338.7915447102136
 20
-4.215930157011217
 30
0.0
 10
-331.6034409901039
 20
-12.38767307347494
 30
0.0
 10
-320.5659893503511
 20
-23.71369813777562
 30
0.0
 10
-309.8852200104602
 20
-33.94004886976253
 30
0.0
 10
-299.5998516584703
 20
-43.10613723465266
 30
0.0
 10
-289.7917510990027
 20
-51.29328844263145
 30
0.0
 10
-280.5217707181775
 20
-58.56851838369101
 30
0.0
 10
-272.0551760880649
 20
-64.842721011579
 30
0.0
 10
-264.4109869349549
 20
-70.22464717888282
 30
0.0
 10
-257.5951887970858
 20
-74.81097850543227
 30
0.0
 10
-251.3809977770217
 20
-78.82197564714201
 30
0.0
 10
-245.7650136441588
 20
-82.31211353439281
 30
0.0
 10
-240.399142434598
 20
-85.53449353412758
 30
0.0
 10
-234.5189481815435
 20
-88.94722149852002
 30
0.0
 10
-227.5897284018589
 20
-92.80551095314249
 30
0.0
 10
-219.4058401365631
 20
-97.13581513469013
 30
0.0
 10
-210.1698376686977
 20
-101.7427806955683
 30
0.0
 10
-199.8498349765866
 20
-106.5521860308857
 30
0.0
 10
-188.4133430490942
 20
-111.480758420247
 30
0.0
 10
-176.4953729014157
 20
-116.1730392927124
 30
0.0
 10
-164.1852629247018
 20
-120.5725906541594
 30
0.0
 10
-151.5753350722357
 20
-124.6364852999211
 30
0.0
 10
-138.0627395571547
 20
-128.496580445961
 30
0.0
 10
-123.6326991992511
 20
-132.0739286868934
 30
0.0
 10
-108.271035394646
 20
-135.2645296669635
 30
0.0
 10
-91.97441774262592
 20
-138.0330777315775
 30
0.0
 10
-80.7521217919231
 20
-139.3334689522339
 30
0.0
 10
-74.99999999999999
 20
-140.0
 30
0.0
  0
LINE
  5
AB
330
A0
100
AcDbEntity
  8
0
  6
Continuous
 62
     7
370
    25
100
AcDbLine
 10
75.0
 20
-145.0
 30
0.0
 11
75.0
 21
-140.0
 31
0.0
  0
LINE
  5
AC
330
A0
100
AcDbEntity
  8
0
  6
Continuous
 62
     7
370
    25
100
AcDbLine
 10
-75.0
 20
-140.0
 30
0.0
 11
-75.0
 21
-145.0
 31
0.0
  0
LINE
  5
AD
330
A0
100
AcDbEntity
  8
0
  6
Continuous
 62
     7
370
    25
100
AcDbLine
 10
342.5
 20
0.0
 30
0.0
 11
-342.5
 21
0.0
 31
0.0
  0
LINE
  5
AE
330
A0
100
AcDbEntity
  8
0
  6
Continuous
 62
     7
370
    25
100
AcDbLine
 10
75.0
 20
-140.0
 30
0.0
 11
-75.0
 21
-140.0
 31
0.0
  0
LINE
  5
AF
330
A0
100
AcDbEntity
  8
0
  6
Continuous
 62
     7
370
    25
100
AcDbLine
 10
75.0
 20
-145.0
 30
0.0
 11
-75.0
 21
-145.0
 31
0.0
  0
VIEWPORT
  5
ED
330
A0
100
AcDbEntity
  8
0
100
AcDbViewport
 10
0.0
 20
0.0
 30
0.0
 40
205.6
 41
156.0
 68
     1
 69
     1
 12
0.0
 22
-12.0574373589
 13
0.0
 23
0.0
 14
10.0
 24
10.0
 15
10.0
 25
10.0
 16
0.0
 26
0.0
 36
1.0
 17
0.0
 27
0.0
 37
0.0
 42
50.0
 43
0.0
 44
0.0
 45
440.8991966491
 50
0.0
 51
0.0
 72
   100
 90
   557152
  1

281
     0
 71
     1
 74
     0
110
0.0
120
0.0
130
0.0
111
1.0
121
0.0
131
0.0
112
0.0
122
1.0
132
0.0
 79
     0
146
0.0
170
     0
 61
     5
348
2F
292
     1
282
     1
141
0.0
142
0.0
 63
   256
361
EE
  0
ENDBLK
  5
A3
330
A0
100
AcDbEntity
  8
0
100
AcDbBlockEnd
  0
BLOCK
  5
B2
330
B0
100
AcDbEntity
  8
0
100
AcDbBlockBegin
  2
*Paper_Space4
 70
     0
 10
0.0
 20
0.0
 30
0.0
  3
*Paper_Space4
  1

  0
SPLINE
  5
B4
330
B0
100
AcDbEntity
  8
0
  6
Continuous
 62
     7
370
    25
100
AcDbSpline
210
0.0
220
0.0
230
1.0
 70
     8
 71
     3
 72
    32
 73
    28
 74
     0
 42
0.000000001
 43
0.00000001
 40
0.0
 40
0.0
 40
0.0
 40
0.0
 40
0.0574943036231108
 40
0.1109574962619664
 40
0.1605711904983775
 40
0.2064722288260261
 40
0.2487630362607275
 40
0.2875197252579977
 40
0.3227983591879905
 40
0.3546397561322019
 40
0.3830731663211703
 40
0.4081190980904912
 40
0.4298851087703293
 40
0.4527035150113318
 40
0.4789289145036583
 40
0.5085641926771914
 40
0.5416170919800505
 40
0.5781019593214213
 40
0.6180419173264926
 40
0.661471653330184
 40
0.7084410968058422
 40
0.759020341541096
 40
0.8133062565965952
 40
0.856535269500931
 40
0.9019961471535105
 40
0.949779918458705
 40
0.9999999999999999
 40
0.9999999999999999
 40
0.9999999999999999
 40
0.9999999999999999
 10
50.00000000000003
 20
-140.0
 30
0.0
 10
54.35911955781251
 20
-139.5079626180206
 30
0.0
 10
62.7717267477711
 20
-138.5583861812032
 30
0.0
 10
74.78786049401747
 20
-136.1235450316467
 30
0.0
 10
85.77611812491861
 20
-133.2119647410541
 30
0.0
 10
95.7600189510999
 20
-129.9080161834448
 30
0.0
 10
104.7766144947905
 20
-126.3688587203572
 30
0.0
 10
112.86456366849
 20
-122.7141126514389
 30
0.0
 10
120.0651574509844
 20
-119.053845873931
 30
0.0
 10
126.420411352884
 20
-115.4834576053531
 30
0.0
 10
131.971992578269
 20
-112.0862585109083
 30
0.0
 10
136.7660680603323
 20
-108.9301685219093
 30
0.0
 10
141.1158971059518
 20
-105.8826545431816
 30
0.0
 10
145.4524667883361
 20
-102.6628640299872
 30
0.0
 10
150.1606547056473
 20
-98.94084733894518
 30
0.0
 10
155.3333593165986
 20
-94.55353973410816
 30
0.0
 10
160.9096081228939
 20
-89.44018555091857
 30
0.0
 10
166.8176936341946
 20
-83.53617716549981
 30
0.0
 10
172.9739615603483
 20
-76.77406521886192
 30
0.0
 10
179.2814901074827
 20
-69.08469709027955
 30
0.0
 10
185.6285255577109
 20
-60.39834465640889
 30
0.0
 10
191.8872432489143
 20
-50.64637961125713
 30
0.0
 10
197.3599373211642
 20
-40.75599868258592
 30
0.0
 10
202.0573128598439
 20
-30.90920786946903
 30
0.0
 10
206.0059733038334
 20
-21.27422614833358
 30
0.0
 10
209.6109146159527
 20
-10.93302015158754
 30
0.0
 10
211.5211425424249
 20
-3.704240922851904
 30
0.0
 10
212.5000000000001
 20
0.0
 30
0.0
  0
SPLINE
  5
B5
330
B0
100
AcDbEntity
  8
0
  6
Continuous
 62
     7
370
    25
100
AcDbSpline
210
0.0
220
0.0
230
1.0
 70
     8
 71
     3
 72
    32
 73
    28
 74
     0
 42
0.000000001
 43
0.00000001
 40
0.0
 40
0.0
 40
0.0
 40
0.0
 40
0.0574943036231108
 40
0.1109574962619664
 40
0.1605711904983776
 40
0.206472228826026
 40
0.2487630362607275
 40
0.2875197252579978
 40
0.3227983591879905
 40
0.354639756132202
 40
0.3830731663211704
 40
0.4081190980904911
 40
0.4298851087703293
 40
0.4527035150113317
 40
0.4789289145036583
 40
0.5085641926771914
 40
0.5416170919800505
 40
0.5781019593214213
 40
0.6180419173264924
 40
0.6614716533301842
 40
0.7084410968058421
 40
0.7590203415410959
 40
0.8133062565965953
 40
0.8565352695009308
 40
0.9019961471535104
 40
0.9497799184587051
 40
1.0
 40
1.0
 40
1.0
 40
1.0
 10
-212.5
 20
0.0
 30
0.0
 10
-211.3684807309784
 20
-4.238359145754559
 30
0.0
 10
-209.1847766568179
 20
-12.417912413409
 30
0.0
 10
-204.9990392273336
 20
-23.94160643063578
 30
0.0
 10
-200.4938745655262
 20
-34.37820534606922
 30
0.0
 10
-195.7492456429466
 20
-43.7634516489306
 30
0.0
 10
-190.9151009780429
 20
-52.15723959632432
 30
0.0
 10
-186.1040253046448
 20
-59.61549954952107
 30
0.0
 10
-181.4187666754646
 20
-66.19535177284023
 30
0.0
 10
-176.9474586881783
 20
-71.95246297802268
 30
0.0
 10
-172.766330938959
 20
-76.94036700015988
 30
0.0
 10
-168.9357259505228
 20
-81.2147709549759
 30
0.0
 10
-165.278224850697
 20
-85.06587987078562
 30
0.0
 10
-161.4523045518013
 20
-88.87838841838636
 30
0.0
 10
-157.0747066503289
 20
-92.98412566352715
 30
0.0
 10
-151.9704171944751
 20
-97.4508437162452
 30
0.0
 10
-146.0883694558967
 20
-102.2092527101776
 30
0.0
 10
-139.3752752883034
 20
-107.1788760481138
 30
0.0
 10
-131.7768035123075
 20
-112.2670013833278
 30
0.0
 10
-123.2389012484971
 20
-117.3675428764825
 30
0.0
 10
-113.7091407099999
 20
-122.3596608328982
 30
0.0
 10
-103.1385593902845
 20
-127.1067841663842
 30
0.0
 10
-92.54737109991547
 20
-131.0560557347386
 30
0.0
 10
-82.11399532473361
 20
-134.2449891304868
 30
0.0
 10
-72.00086420757967
 20
-136.7247816774137
 30
0.0
 10
-61.24013051036335
 20
-138.7601572271721
 30
0.0
 10
-53.80829366793385
 20
-139.5799261070287
 30
0.0
 10
-49.99999999999999
 20
-140.0
 30
0.0
  0
SPLINE
  5
B8
330
B0
100
AcDbEntity
  8
0
  6
Continuous
 62
     7
370
    25
100
AcDbSpline
210
0.0
220
0.0
230
1.0
 70
    24
 71
     3
 72
    15
 73
    11
 74
     0
 42
0.000000001
 43
0.00000001
 40
0.0
 40
0.0
 40
0.0
 40
0.0
 40
0.0062500000000001
 40
0.0083333333333333
 40
0.0416666666666666
 40
0.0833333333333334
 40
0.125
 40
0.1666666666666666
 40
0.2083333333333334
 40
0.2499999999996538
 40
0.2499999999996538
 40
0.2499999999996538
 40
0.2499999999996538
 10
0.0000000000001505
 20
0.0
 30
0.0
 10
-2.79627835108201
 20
0.0
 30
0.0
 10
-6.524649485858157
 20
0.0
 30
0.0
 10
-25.14318496094193
 20
0.0
 30
0.0
 10
-59.34300217245835
 20
0.0
 30
0.0
 10
-107.1870942838844
 20
0.0
 30
0.0
 10
-152.0240655199164
 20
0.0
 30
0.0
 10
-186.2777896492969
 20
0.0
 30
0.0
 10
-207.5110094693346
 20
0.0
 30
0.0
 10
-212.5000000000207
 20
0.0
 30
0.0
 10
-212.5
 20
0.0
 30
0.0
  0
SPLINE
  5
BA
330
B0
100
AcDbEntity
  8
0
  6
Continuous
 62
     7
370
    25
100
AcDbSpline
210
0.0
220
0.0
230
1.0
 70
    24
 71
     3
 72
    15
 73
    11
 74
     0
 42
0.000000001
 43
0.00000001
 40
0.0
 40
0.0
 40
0.0
 40
0.0
 40
0.0062500000000001
 40
0.0083333333333333
 40
0.0416666666666666
 40
0.0833333333333334
 40
0.125
 40
0.1666666666666666
 40
0.2083333333333334
 40
0.2499999999996538
 40
0.2499999999996538
 40
0.2499999999996538
 40
0.2499999999996538
 10
-0.0000000000000316
 20
-140.0
 30
0.0
 10
-0.6579478473134835
 20
-140.0
 30
0.0
 10
-1.535211643731404
 20
-140.0
 30
0.0
 10
-5.91604352022172
 20
-140.0
 30
0.0
 10
-13.9630593346962
 20
-140.0
 30
0.0
 10
-25.22049277267882
 20
-140.0
 30
0.0
 10
-35.77036835762748
 20
-140.0
 30
0.0
 10
-43.83006815277582
 20
-140.0
 30
0.0
 10
-48.82611987513759
 20
-140.0
 30
0.0
 10
-50.00000000000487
 20
-140.0
 30
0.0
 10
-49.99999999999999
 20
-140.0
 30
0.0
  0
SPLINE
  5
BC
330
B0
100
AcDbEntity
  8
0
  6
Continuous
 62
     7
370
    25
100
AcDbSpline
210
0.0
220
0.0
230
1.0
 70
    24
 71
     3
 72
    15
 73
    11
 74
     0
 42
0.000000001
 43
0.00000001
 40
0.0
 40
0.0
 40
0.0
 40
0.0
 40
0.0062500000000001
 40
0.0083333333333333
 40
0.0416666666666666
 40
0.0833333333333334
 40
0.125
 40
0.1666666666666666
 40
0.2083333333333334
 40
0.2499999999996538
 40
0.2499999999996538
 40
0.2499999999996538
 40
0.2499999999996538
 10
-0.0000000000000278
 20
-145.0
 30
0.0
 10
-0.6562281848878032
 20
-145.0
 30
0.0
 10
-1.531199098071489
 20
-145.0
 30
0.0
 10
-5.900713950206979
 20
-145.0
 30
0.0
 10
-13.92833842716638
 20
-145.0
 30
0.0
 10
-25.18118463892012
 20
-145.0
 30
0.0
 10
-35.70451153140391
 20
-145.0
 30
0.0
 10
-43.7694028356157
 20
-145.0
 30
0.0
 10
-48.80797995958082
 20
-145.0
 30
0.0
 10
-50.00000000000476
 20
-145.0
 30
0.0
 10
-49.99999999999999
 20
-145.0
 30
0.0
  0
LINE
  5
BE
330
B0
100
AcDbEntity
  8
0
  6
Continuous
 62
     7
370
    25
100
AcDbLine
 10
50.0
 20
-145.0
 30
0.0
 11
50.0
 21
-140.0
 31
0.0
  0
LINE
  5
BF
330
B0
100
AcDbEntity
  8
0
  6
Continuous
 62
     7
370
    25
100
AcDbLine
 10
-50.0
 20
-140.0
 30
0.0
 11
-50.0
 21
-145.0
 31
0.0
  0
LINE
  5
C0
330
B0
100
AcDbEntity
  8
0
  6
Continuous
 62
     7
370
    25
100
AcDbLine
 10
212.5
 20
0.0
 30
0.0
 11
0.0
 21
0.0
 31
0.0
  0
LINE
  5
C1
330
B0
100
AcDbEntity
  8
0
  6
Continuous
 62
     7
370
    25
100
AcDbLine
 10
50.0
 20
-140.0
 30
0.0
 11
0.0
 21
-140.0
 31
0.0
  0
LINE
  5
C2
330
B0
100
AcDbEntity
  8
0
  6
Continuous
 62
     7
370
    25
100
AcDbLine
 10
50.0
 20
-145.0
 30
0.0
 11
0.0
 21
-145.0
 31
0.0
  0
VIEWPORT
  5
EF
330
B0
100
AcDbEntity
  8
0
100
AcDbViewport
 10
0.0
 20
0.0
 30
0.0
 40
205.6
 41
156.0
 68
     1
 69
     1
 12
0.0
 22
-12.0574373589
 13
0.0
 23
0.0
 14
10.0
 24
10.0
 15
10.0
 25
10.0
 16
0.0
 26
0.0
 36
1.0
 17
0.0
 27
0.0
 37
0.0
 42
50.0
 43
0.0
 44
0.0
 45
440.8991966491
 50
0.0
 51
0.0
 72
   100
 90
   557152
  1

281
     0
 71
     1
 74
     0
110
0.0
120
0.0
130
0.0
111
1.0
121
0.0
131
0.0
112
0.0
122
1.0
132
0.0
 79
     0
146
0.0
170
     0
 61
     5
348
2F
292
     1
282
     1
141
0.0
142
0.0
 63
   256
361
F0
  0
ENDBLK
  5
B3
330
B0
100
AcDbEntity
  8
0
100
AcDbBlockEnd
  0
BLOCK
  5
C5
330
C3
100
AcDbEntity
  8
0
100
AcDbBlockBegin
  2
*Paper_Space5
 70
     0
 10
0.0
 20
0.0
 30
0.0
  3
*Paper_Space5
  1

  0
SPLINE
  5
C7
330
C3
100
AcDbEntity
  8
0
  6
Continuous
 62
     7
370
    25
100
AcDbSpline
210
0.0
220
0.0
230
1.0
 70
    11
 71
     3
 72
    35
 73
    31
 74
     0
 42
0.000000001
 43
0.00000001
 40
0.0
 40
0.0
 40
0.0
 40
0.0
 40
0.0062500000000001
 40
0.0083333333333333
 40
0.0416666666666666
 40
0.0833333333333334
 40
0.125
 40
0.1666666666666666
 40
0.2083333333333334
 40
0.2499999999996538
 40
0.2916666666666666
 40
0.3333333333333334
 40
0.375
 40
0.4166666666666666
 40
0.4583333333333334
 40
0.4999999999999999
 40
0.5416666666666667
 40
0.5833333333333333
 40
0.625
 40
0.6666666666666667
 40
0.7083333333333333
 40
0.7499999999996151
 40
0.7916666666666666
 40
0.8333333333333334
 40
0.875
 40
0.9166666666666666
 40
0.9583333333333334
 40
0.9916666666666667
 40
0.99375
 40
1.0
 40
1.0
 40
1.0
 40
1.0
 10
22.99999999999994
 20
0.0000000000000022
 30
0.0
 10
22.99999999999994
 20
0.3058699265881806
 30
0.0
 10
22.99133516299601
 20
0.713696495372411
 30
0.0
 10
22.89145991336851
 20
2.750466703463506
 30
0.0
 10
22.26524099857048
 20
6.493723289480204
 30
0.0
 10
20.06579618222126
 20
11.76226989751439
 30
0.0
 10
16.46208693124008
 20
16.46208693124017
 30
0.0
 10
11.76226989751427
 20
20.06579618222131
 30
0.0
 10
6.117398531763338
 20
22.4223441997383
 30
0.0
 10
-0.0000000000001435
 20
23.28882790013073
 30
0.0
 10
-6.117398531763618
 20
22.42234419973825
 30
0.0
 10
-11.76226989751453
 20
20.06579618222122
 30
0.0
 10
-16.46208693124031
 20
16.46208693124005
 30
0.0
 10
-20.06579618222145
 20
11.76226989751424
 30
0.0
 10
-22.42234419973844
 20
6.117398531763309
 30
0.0
 10
-23.28882790013088
 20
-0.0000000000001789
 30
0.0
 10
-22.42234419973839
 20
-6.117398531763646
 30
0.0
 10
-20.06579618222136
 20
-11.76226989751455
 30
0.0
 10
-16.46208693124019
 20
-16.46208693124034
 30
0.0
 10
-11.76226989751438
 20
-20.06579618222148
 30
0.0
 10
-6.117398531763454
 20
-22.42234419973846
 30
0.0
 10
0.0000000000000208
 20
-23.2888279001309
 30
0.0
 10
6.1173985317635
 20
-22.42234419973842
 30
0.0
 10
11.76226989751441
 20
-20.06579618222139
 30
0.0
 10
16.4620869312402
 20
-16.46208693124022
 30
0.0
 10
20.06579618222134
 20
-11.76226989751441
 30
0.0
 10
22.26524099857052
 20
-6.493723289480205
 30
0.0
 10
22.89145991336856
 20
-2.750466703463496
 30
0.0
 10
22.99133516299603
 20
-0.7136964953724011
 30
0.0
 10
22.99999999999994
 20
-0.3058699265881706
 30
0.0
 10
22.99999999999994
 20
0.0000000000000022
 30
0.0
  0
SPLINE
  5
C8
330
C3
100
AcDbEntity
  8
0
  6
Continuous
 62
     7
370
    25
100
AcDbSpline
210
0.0
220
0.0
230
1.0
 70
    11
 71
     3
 72
    35
 73
    31
 74
     0
 42
0.000000001
 43
0.00000001
 40
0.0
 40
0.0
 40
0.0
 40
0.0
 40
0.0062500000000001
 40
0.0083333333333333
 40
0.0416666666666666
 40
0.0833333333333334
 40
0.125
 40
0.1666666666666666
 40
0.2083333333333334
 40
0.2499999999996538
 40
0.2916666666666666
 40
0.3333333333333334
 40
0.375
 40
0.4166666666666666
 40
0.4583333333333334
 40
0.4999999999999999
 40
0.5416666666666667
 40
0.5833333333333333
 40
0.625
 40
0.6666666666666667
 40
0.7083333333333333
 40
0.7499999999996151
 40
0.7916666666666666
 40
0.8333333333333334
 40
0.875
 40
0.9166666666666666
 40
0.9583333333333334
 40
0.9916666666666667
 40
0.99375
 40
1.0
 40
1.0
 40
1.0
 40
1.0
 10
75.0
 20
0.0000000000000278
 30
0.0
 10
74.99999999999983
 20
0.6562281848878032
 30
0.0
 10
74.97312537457296
 20
1.531199098071489
 30
0.0
 10
74.66205199857794
 20
5.900713950206979
 30
0.0
 10
72.70371807169154
 20
13.92833842716638
 30
0.0
 10
65.63875480695735
 20
25.18118463892012
 30
0.0
 10
53.52787422140864
 20
35.70451153140391
 30
0.0
 10
37.73746643098969
 20
43.7694028356157
 30
0.0
 10
19.66517573985884
 20
48.80797995956687
 30
0.0
 10
-0.000000000008684
 20
50.59601002021627
 30
0.0
 10
-19.66517573987588
 20
48.80797995956797
 30
0.0
 10
-37.73746643101205
 20
43.76940283561461
 30
0.0
 10
-53.52787422142682
 20
35.70451153140299
 30
0.0
 10
-65.63875480697027
 20
25.18118463891956
 30
0.0
 10
-73.20835830489362
 20
13.1245636977552
 30
0.0
 10
-75.89582084755503
 20
-0.0000000000000587
 30
0.0
 10
-73.20835830488684
 20
-13.12456369775548
 30
0.0
 10
-65.63875480695712
 20
-25.18118463892021
 30
0.0
 10
-53.52787422140802
 20
-35.70451153140403
 30
0.0
 10
-37.73746643098873
 20
-43.76940283561581
 30
0.0
 10
-19.66517573985806
 20
-48.80797995956686
 30
0.0
 10
0.0000000000095271
 20
-50.59601002021634
 30
0.0
 10
19.66517573987667
 20
-48.80797995956806
 30
0.0
 10
37.737466431013
 20
-43.7694028356146
 30
0.0
 10
53.52787422142742
 20
-35.70451153140299
 30
0.0
 10
65.63875480697051
 20
-25.18118463891955
 30
0.0
 10
72.70371807169875
 20
-13.92833842716618
 30
0.0
 10
74.662051998581
 20
-5.900713950206892
 30
0.0
 10
74.97312537457375
 20
-1.53119909807142
 30
0.0
 10
75.00000000000017
 20
-0.656228184887736
 30
0.0
 10
75.0
 20
0.0000000000000278
 30
0.0
  0
SPLINE
  5
C9
330
C3
100
AcDbEntity
  8
0
  6
Continuous
 62
     7
370
    25
100
AcDbSpline
210
0.0
220
0.0
230
1.0
 70
    11
 71
     3
 72
    35
 73
    31
 74
     0
 42
0.000000001
 43
0.00000001
 40
0.0
 40
0.0
 40
0.0
 40
0.0
 40
0.0062500000000001
 40
0.0083333333333333
 40
0.0416666666666666
 40
0.0833333333333334
 40
0.125
 40
0.1666666666666666
 40
0.2083333333333334
 40
0.2499999999996538
 40
0.2916666666666666
 40
0.3333333333333334
 40
0.375
 40
0.4166666666666666
 40
0.4583333333333334
 40
0.4999999999999999
 40
0.5416666666666667
 40
0.5833333333333333
 40
0.625
 40
0.6666666666666667
 40
0.7083333333333333
 40
0.7499999999996151
 40
0.7916666666666666
 40
0.8333333333333334
 40
0.875
 40
0.9166666666666666
 40
0.9583333333333334
 40
0.9916666666666667
 40
0.99375
 40
1.0
 40
1.0
 40
1.0
 40
1.0
 10
74.99999999999999
 20
0.0000000000000316
 30
0.0
 10
74.99999999999999
 20
0.6579478473134835
 30
0.0
 10
74.97358769719027
 20
1.535211643731404
 30
0.0
 10
74.66759223070719
 20
5.91604352022172
 30
0.0
 10
72.73957464045078
 20
13.9630593346962
 30
0.0
 10
65.7451022291636
 20
25.22049277267882
 30
0.0
 10
53.65555253644105
 20
35.77036835762748
 30
0.0
 10
37.83073915901801
 20
43.83006815277582
 30
0.0
 10
19.73843541940311
 20
48.82611987512376
 30
0.0
 10
-0.0000000000001405
 20
50.58694006243811
 30
0.0
 10
-19.73843541940337
 20
48.82611987512373
 30
0.0
 10
-37.83073915901826
 20
43.83006815277572
 30
0.0
 10
-53.65555253644127
 20
35.77036835762737
 30
0.0
 10
-65.7451022291638
 20
25.22049277267871
 30
0.0
 10
-73.23917981268572
 20
13.15895694626876
 30
0.0
 10
-75.8804100936573
 20
-0.0000000000000772
 30
0.0
 10
-73.23917981268568
 20
-13.1589569462689
 30
0.0
 10
-65.74510222916373
 20
-25.22049277267882
 30
0.0
 10
-53.65555253644116
 20
-35.77036835762749
 30
0.0
 10
-37.83073915901813
 20
-43.83006815277582
 30
0.0
 10
-19.73843541940324
 20
-48.82611987512378
 30
0.0
 10
0.0000000000000074
 20
-50.58694006243816
 30
0.0
 10
19.73843541940325
 20
-48.82611987512377
 30
0.0
 10
37.83073915901816
 20
-43.83006815277579
 30
0.0
 10
53.65555253644115
 20
-35.77036835762745
 30
0.0
 10
65.74510222916368
 20
-25.22049277267876
 30
0.0
 10
72.73957464045083
 20
-13.96305933469615
 30
0.0
 10
74.66759223070723
 20
-5.916043520221649
 30
0.0
 10
74.97358769719027
 20
-1.535211643731329
 30
0.0
 10
74.99999999999999
 20
-0.6579478473134087
 30
0.0
 10
74.99999999999999
 20
0.0000000000000316
 30
0.0
  0
SPLINE
  5
CA
330
C3
100
AcDbEntity
  8
0
  6
Continuous
 62
     7
370
    25
100
AcDbSpline
210
0.0
220
0.0
230
1.0
 70
    11
 71
     3
 72
    35
 73
    31
 74
     0
 42
0.000000001
 43
0.00000001
 40
0.0
 40
0.0
 40
0.0
 40
0.0
 40
0.0062500000000001
 40
0.0083333333333333
 40
0.0416666666666666
 40
0.0833333333333334
 40
0.125
 40
0.1666666666666666
 40
0.2083333333333334
 40
0.2499999999996538
 40
0.2916666666666666
 40
0.3333333333333334
 40
0.375
 40
0.4166666666666666
 40
0.4583333333333334
 40
0.4999999999999999
 40
0.5416666666666667
 40
0.5833333333333333
 40
0.625
 40
0.6666666666666667
 40
0.7083333333333333
 40
0.7499999999996151
 40
0.7916666666666666
 40
0.8333333333333334
 40
0.875
 40
0.9166666666666666
 40
0.9583333333333334
 40
0.9916666666666667
 40
0.99375
 40
1.0
 40
1.0
 40
1.0
 40
1.0
 10
342.5000000000001
 20
-0.0000000000001505
 30
0.0
 10
342.5000000000001
 20
2.79627835108201
 30
0.0
 10
342.379383817169
 20
6.524649485858157
 30
0.0
 10
340.9820045202297
 20
25.14318496094193
 30
0.0
 10
332.1773908580587
 20
59.34300217245835
 30
0.0
 10
300.2359668465141
 20
107.1870942838844
 30
0.0
 10
245.0270232497481
 20
152.0240655199164
 30
0.0
 10
172.7603754928497
 20
186.2777896492969
 30
0.0
 10
90.13885508194167
 20
207.5110094692758
 30
0.0
 10
0.0000000000001483
 20
214.994495265362
 30
0.0
 10
-90.13885508194133
 20
207.511009469276
 30
0.0
 10
-172.7603754928494
 20
186.2777896492971
 30
0.0
 10
-245.0270232497477
 20
152.0240655199166
 30
0.0
 10
-300.2359668465142
 20
107.1870942838847
 30
0.0
 10
-334.4589211445978
 20
55.92556702164246
 30
0.0
 10
-346.5205394277012
 20
-0.0000000000000301
 30
0.0
 10
-334.4589211445976
 20
-55.92556702164251
 30
0.0
 10
-300.235966846514
 20
-107.1870942838847
 30
0.0
 10
-245.0270232497478
 20
-152.0240655199166
 30
0.0
 10
-172.7603754928494
 20
-186.2777896492971
 30
0.0
 10
-90.1388550819414
 20
-207.511009469276
 30
0.0
 10
0.000000000000098
 20
-214.9944952653622
 30
0.0
 10
90.1388550819416
 20
-207.511009469276
 30
0.0
 10
172.7603754928496
 20
-186.2777896492971
 30
0.0
 10
245.027023249748
 20
-152.0240655199165
 30
0.0
 10
300.2359668465142
 20
-107.1870942838848
 30
0.0
 10
332.177390858059
 20
-59.34300217245866
 30
0.0
 10
340.9820045202297
 20
-25.14318496094219
 30
0.0
 10
342.379383817169
 20
-6.524649485858409
 30
0.0
 10
342.5000000000001
 20
-2.796278351082261
 30
0.0
 10
342.5000000000001
 20
-0.0000000000001505
 30
0.0
  0
VIEWPORT
  5
F1
330
C3
100
AcDbEntity
  8
0
100
AcDbViewport
 10
0.0
 20
0.0
 30
0.0
 40
205.6
 41
156.0
 68
     1
 69
     1
 12
0.0
 22
-12.0574373589
 13
0.0
 23
0.0
 14
10.0
 24
10.0
 15
10.0
 25
10.0
 16
0.0
 26
0.0
 36
1.0
 17
0.0
 27
0.0
 37
0.0
 42
50.0
 43
0.0
 44
0.0
 45
440.8991966491
 50
0.0
 51
0.0
 72
   100
 90
   557152
  1

281
     0
 71
     1
 74
     0
110
0.0
120
0.0
130
0.0
111
1.0
121
0.0
131
0.0
112
0.0
122
1.0
132
0.0
 79
     0
146
0.0
170
     0
 61
     5
348
2F
292
     1
282
     1
141
0.0
142
0.0
 63
   256
361
F2
  0
ENDBLK
  5
C6
330
C3
100
AcDbEntity
  8
0
100
AcDbBlockEnd
  0
BLOCK
  5
CD
330
CB
100
AcDbEntity
  8
0
100
AcDbBlockBegin
  2
*Paper_Space6
 70
     0
 10
0.0
 20
0.0
 30
0.0
  3
*Paper_Space6
  1

  0
SPLINE
  5
CF
330
CB
100
AcDbEntity
  8
0
  6
Continuous
 62
     7
370
    25
100
AcDbSpline
210
0.0
220
0.0
230
1.0
 70
     8
 71
     3
 72
   151
 73
   147
 74
     0
 42
0.000000001
 43
0.00000001
 40
0.0
 40
0.0
 40
0.0
 40
0.0
 40
0.0064090483438804
 40
0.0114334167215785
 40
0.0151748504736369
 40
0.0187344834268033
 40
0.0224385149739633
 40
0.0263921652221817
 40
0.0333430219732557
 40
0.0406973708738771
 40
0.0481243473879402
 40
0.058043204617718
 40
0.0667145385357476
 40
0.0744051650909121
 40
0.0818028995410382
 40
0.0868703370879341
 40
0.0922869903345549
 40
0.0987084451479635
 40
0.1057237362735426
 40
0.1124970772750715
 40
0.1182577820248719
 40
0.1238735627903619
 40
0.1295018684726402
 40
0.1360636791813842
 40
0.1439907153677239
 40
0.1511207644056042
 40
0.1564433183184319
 40
0.1610340779124279
 40
0.1658476562612271
 40
0.1720196006530796
 40
0.1786461633982123
 40
0.1845580839842261
 40
0.1893067909959188
 40
0.1938785530364345
 40
0.1993399083286412
 40
0.2054815200299017
 40
0.2137624972445368
 40
0.2209683633782193
 40
0.22989067023181
 40
0.237409813431868
 40
0.2450017677745877
 40
0.2554086473872331
 40
0.2604271257763356
 40
0.2645179935556111
 40
0.2677894243520968
 40
0.2717805318219161
 40
0.277499824660035
 40
0.2813484291938713
 40
0.2840475985001196
 40
0.2871026318202285
 40
0.2912742454113554
 40
0.2961293432493023
 40
0.3021880129196847
 40
0.3072394500818896
 40
0.3131468779348059
 40
0.3184216192210345
 40
0.3231978773249976
 40
0.3292054983408317
 40
0.337087544667995
 40
0.3444320923462956
 40
0.3516952662442034
 40
0.356825359055757
 40
0.3625914466134643
 40
0.3696546582313834
 40
0.377842013199785
 40
0.3863064299298801
 40
0.3977987593957465
 40
0.409218439452228
 40
0.4201835067735731
 40
0.4306000025320689
 40
0.4406394002824729
 40
0.4516759352134355
 40
0.4596575176457456
 40
0.4681759447812566
 40
0.4765155803374266
 40
0.4829426606743468
 40
0.4866219389237667
 40
0.4891250306951613
 40
0.4917996993939394
 40
0.4955546766839535
 40
0.5016268080784403
 40
0.5092939036067129
 40
0.5185155712345583
 40
0.5278936882787514
 40
0.536553673013404
 40
0.5445115941507322
 40
0.5556288637062277
 40
0.5650877030849083
 40
0.5729284899212203
 40
0.5773646589976895
 40
0.5826166938658882
 40
0.5892341148138215
 40
0.5972072807896166
 40
0.6062940086561643
 40
0.6149993214656102
 40
0.6230626693494924
 40
0.6304944193947947
 40
0.6381949704544406
 40
0.6445546229192041
 40
0.6494598123521791
 40
0.654837429675798
 40
0.6613501289106953
 40
0.6688545917272252
 40
0.677480289937312
 40
0.6872200336261641
 40
0.6974517610583437
 40
0.7073687356727649
 40
0.7160436420713928
 40
0.7234494183040481
 40
0.7303810275166402
 40
0.7369209003703333
 40
0.7428273755685189
 40
0.7493594658581835
 40
0.7592328720799918
 40
0.7684714555918378
 40
0.7796808023769839
 40
0.7885178984909328
 40
0.7984199834684301
 40
0.808551948099288
 40
0.818181588000844
 40
0.8260073989726329
 40
0.8345400130616241
 40
0.8404914386496442
 40
0.8467615991397115
 40
0.8540322133298711
 40
0.8623652050106969
 40
0.8712225226556893
 40
0.8800538003029055
 40
0.8881324432229449
 40
0.8959126087884008
 40
0.904609214180423
 40
0.9144844394716001
 40
0.9247051016765363
 40
0.9335954502079629
 40
0.9412122430987149
 40
0.9462167673253041
 40
0.9513711589151419
 40
0.9579970275796217
 40
0.9657531779022035
 40
0.9725063084254092
 40
0.976327320112308
 40
0.9798113636655813
 40
0.9829704803285726
 40
0.9867511953236598
 40
0.9924292179094246
 40
1.0
 40
1.0
 40
1.0
 40
1.0
 10
-270.3052579791778
 20
22.57489319963222
 30
0.0
 10
-269.6495433276426
 20
21.40025596707004
 30
0.0
 10
-268.479781693904
 20
19.30476280553242
 30
0.0
 10
-266.9036624075165
 20
16.54722279441091
 30
0.0
 10
-265.6244805601104
 20
14.33679008738426
 30
0.0
 10
-264.4712315824227
 20
12.36695643138611
 30
0.0
 10
-263.2813961742877
 20
10.35725968612775
 30
0.0
 10
-261.7168235154944
 20
7.745848689011556
 30
0.0
 10
-259.7388813614894
 20
4.499525554502309
 30
0.0
 10
-257.3479548704242
 20
0.6605226291829663
 30
0.0
 10
-254.5884834323562
 20
-3.671534750779484
 30
0.0
 10
-251.6297950165057
 20
-8.19595411373731
 30
0.0
 10
-248.5844099241075
 20
-12.72443286906055
 30
0.0
 10
-245.7866145558687
 20
-16.78404597274723
 30
0.0
 10
-243.3781193584721
 20
-20.2010151010598
 30
0.0
 10
-241.2158290399755
 20
-23.21233404793827
 30
0.0
 10
-239.1510317842846
 20
-26.04347580844791
 30
0.0
 10
-236.8237329442318
 20
-29.17908169710531
 30
0.0
 10
-234.2964251487497
 20
-32.51713836224886
 30
0.0
 10
-231.8218628799556
 20
-35.71958245767912
 30
0.0
 10
-229.4970396376877
 20
-38.67302010209364
 30
0.0
 10
-227.2979851321579
 20
-41.42010430180802
 30
0.0
 10
-224.9724228068325
 20
-44.27738386284955
 30
0.0
 10
-222.3172036585278
 20
-47.48145660223832
 30
0.0
 10
-219.4299137051125
 20
-50.89178542344397
 30
0.0
 10
-216.6719793027254
 20
-54.07757500717612
 30
0.0
 10
-214.3415138417832
 20
-56.72033625142998
 30
0.0
 10
-212.3126447076949
 20
-58.98750227722289
 30
0.0
 10
-210.1507644417681
 20
-61.36981065681011
 30
0.0
 10
-207.6853785026928
 20
-64.04257771133757
 30
0.0
 10
-205.0389182399256
 20
-66.85746195561443
 30
0.0
 10
-202.5712084302258
 20
-69.43353839698244
 30
0.0
 10
-200.3776215928112
 20
-71.68718603779344
 30
0.0
 10
-198.2365805384875
 20
-73.85631010944357
 30
0.0
 10
-195.8747165711682
 20
-76.21333793298737
 30
0.0
 10
-192.9492690009683
 20
-79.08219587561335
 30
0.0
 10
-189.7297767688869
 20
-82.1712582996445
 30
0.0
 10
-186.0628734151142
 20
-85.60773493175908
 30
0.0
 10
-182.4678402862683
 20
-88.89496927656474
 30
0.0
 10
-178.7732413207935
 20
-92.18886881005264
 30
0.0
 10
-174.8195609262161
 20
-95.63247951723703
 30
0.0
 10
-171.2066716246872
 20
-98.6925322152497
 30
0.0
 10
-168.1134615514935
 20
-101.2498049125126
 30
0.0
 10
-166.1401263994292
 20
-102.8580224683194
 30
0.0
 10
-164.3193388328042
 20
-104.3247203120022
 30
0.0
 10
-162.2363068515752
 20
-105.9834404279855
 30
0.0
 10
-160.0485271805356
 20
-107.69893894414
 30
0.0
 10
-158.0545233800466
 20
-109.2387513083583
 30
0.0
 10
-156.4873794773304
 20
-110.4362468728942
 30
0.0
 10
-154.8667333908766
 20
-111.663194311647
 30
0.0
 10
-152.8851527407673
 20
-113.1459929271374
 30
0.0
 10
-150.3948792287762
 20
-114.9822956801284
 30
0.0
 10
-147.7391159366906
 20
-116.9058755048383
 30
0.0
 10
-144.8937609367796
 20
-118.9292101244399
 30
0.0
 10
-142.1650068616955
 20
-120.8345123890015
 30
0.0
 10
-139.4628250734546
 20
-122.6860275608939
 30
0.0
 10
-136.7348052805593
 20
-124.523556381416
 30
0.0
 10
-133.5430802943367
 20
-126.6340356150019
 30
0.0
 10
-129.8812907402137
 20
-128.9974730802246
 30
0.0
 10
-125.9768756889928
 20
-131.4504939412806
 30
0.0
 10
-122.5212052048073
 20
-133.5652399483063
 30
0.0
 10
-119.3218420608383
 20
-135.4789961876172
 30
0.0
 10
-116.1716791346958
 20
-137.3255817551231
 30
0.0
 10
-112.4710059017239
 20
-139.4432492990211
 30
0.0
 10
-108.2672585756404
 20
-141.7802566357822
 30
0.0
 10
-103.1992411044728
 20
-144.5093273487527
 30
0.0
 10
-97.44071502790811
 20
-147.4911772108705
 30
0.0
 10
-91.14689308107812
 20
-150.6009962023747
 30
0.0
 10
-85.106878195556
 20
-153.4507574111263
 30
0.0
 10
-79.25836042696153
 20
-156.0894675106477
 30
0.0
 10
-73.36740885538602
 20
-158.6320043002628
 30
0.0
 10
-67.88942179896804
 20
-160.8878706845242
 30
0.0
 10
-62.65264316893428
 20
-162.951555227275
 30
0.0
 10
-57.89102532485209
 20
-164.7552749133226
 30
0.0
 10
-53.38851162768751
 20
-166.3910266238418
 30
0.0
 10
-49.79510432413347
 20
-167.6478642352996
 30
0.0
 10
-47.33134601566735
 20
-168.4868781337199
 30
0.0
 10
-45.60309895042572
 20
-169.0657223684651
 30
0.0
 10
-43.88000731495554
 20
-169.6348499197568
 30
0.0
 10
-41.46981245151509
 20
-170.4172170151563
 30
0.0
 10
-38.08906935286461
 20
-171.4853563995297
 30
0.0
 10
-33.62425109847127
 20
-172.8423497593005
 30
0.0
 10
-28.47129190060462
 20
-174.3328301527788
 30
0.0
 10
-23.07625441249111
 20
-175.8065543199522
 30
0.0
 10
-17.89413521023032
 20
-177.1417664714554
 30
0.0
 10
-12.3333043063477
 20
-178.4956793859036
 30
0.0
 10
-6.579296103903884
 20
-179.8035617889557
 30
0.0
 10
-0.8379226945226248
 20
-181.009359629163
 30
0.0
 10
3.565272480303263
 20
-181.8706396377755
 30
0.0
 10
7.108894846936844
 20
-182.5277019454953
 30
0.0
 10
10.39474223790793
 20
-183.110740418455
 30
0.0
 10
14.40271457546398
 20
-183.7828398164918
 30
0.0
 10
19.20589120360801
 20
-184.5306195971315
 30
0.0
 10
24.46733657962319
 20
-185.2754624029705
 30
0.0
 10
29.76850128343286
 20
-185.9470936580641
 30
0.0
 10
34.74376963325497
 20
-186.5071830071725
 30
0.0
 10
39.52026025353228
 20
-186.9819261961716
 30
0.0
 10
43.93799285416355
 20
-187.3644691412333
 30
0.0
 10
47.84515001725799
 20
-187.6565587275489
 30
0.0
 10
51.27772120430886
 20
-187.8805276767004
 30
0.0
 10
54.72872148641264
 20
-188.0758436929588
 30
0.0
 10
58.71603906773638
 20
-188.261750444283
 30
0.0
 10
63.38100348508797
 20
-188.4242010332645
 30
0.0
 10
68.72077384593219
 20
-188.5373298061858
 30
0.0
 10
74.6491310324611
 20
-188.5702060406045
 30
0.0
 10
80.85946953307838
 20
-188.4972258853903
 30
0.0
 10
86.80461198238396
 20
-188.3230071256545
 30
0.0
 10
92.18067103220905
 20
-188.0775117228221
 30
0.0
 10
96.93227919714595
 20
-187.7920833867235
 30
0.0
 10
101.2369768618841
 20
-187.4777713021855
 30
0.0
 10
105.2246677458491
 20
-187.1376482870758
 30
0.0
 10
109.1290291461737
 20
-186.7598645089997
 30
0.0
 10
113.7027490181888
 20
-186.2645520701756
 30
0.0
 10
118.9670885449313
 20
-185.6133115432221
 30
0.0
 10
125.1493551981018
 20
-184.7359528573988
 30
0.0
 10
131.1258692166283
 20
-183.7694970709413
 30
0.0
 10
137.1939274040204
 20
-182.6680370589741
 30
0.0
 10
143.0312963624908
 20
-181.4988506586469
 30
0.0
 10
149.001013714292
 20
-180.180801234253
 30
0.0
 10
154.5256193607379
 20
-178.8468802857545
 30
0.0
 10
159.6860735178108
 20
-177.5056611236692
 30
0.0
 10
164.1407515476274
 20
-176.2683726765341
 30
0.0
 10
168.1989151885764
 20
-175.0771271452157
 30
0.0
 10
172.1220756003184
 20
-173.8708849339303
 30
0.0
 10
176.268222306216
 20
-172.5316589378778
 30
0.0
 10
180.8997116303973
 20
-170.9567651586311
 30
0.0
 10
186.081971081514
 20
-169.0880373216214
 30
0.0
 10
190.9737695070785
 20
-167.2158289919074
 30
0.0
 10
195.6600302123423
 20
-165.3254317968645
 30
0.0
 10
200.2694461665436
 20
-163.3720462538794
 30
0.0
 10
205.1678179109005
 20
-161.190841407481
 30
0.0
 10
210.4606911627326
 20
-158.7015109936132
 30
0.0
 10
215.7219654806603
 20
-156.0796809792344
 30
0.0
 10
220.508595348794
 20
-153.5621551832968
 30
0.0
 10
224.3128699321128
 20
-151.4674426417164
 30
0.0
 10
227.4233277393164
 20
-149.6944366438075
 30
0.0
 10
230.3369995408636
 20
-147.987080526659
 30
0.0
 10
233.6916206966806
 20
-145.958075146624
 30
0.0
 10
237.2870183359053
 20
-143.6985731782927
 30
0.0
 10
240.370176598009
 20
-141.685091300819
 30
0.0
 10
242.7100220331185
 20
-140.1140198296762
 30
0.0
 10
244.4412986894342
 20
-138.9291278728893
 30
0.0
 10
246.1556295183357
 20
-137.7354720353306
 30
0.0
 10
248.2124676555333
 20
-136.2765200246531
 30
0.0
 10
250.9665039643341
 20
-134.2795743115328
 30
0.0
 10
253.0801509951683
 20
-132.6767256973276
 30
0.0
 10
254.2879551312965
 20
-131.7608077802948
 30
0.0
  0
SPLINE
  5
D0
330
CB
100
AcDbEntity
  8
0
  6
Continuous
 62
     7
370
    25
100
AcDbSpline
210
0.0
220
0.0
230
1.0
 70
    11
 71
     3
 72
    35
 73
    31
 74
     0
 42
0.000000001
 43
0.00000001
 40
0.0
 40
0.0
 40
0.0
 40
0.0
 40
0.0062500000000001
 40
0.0083333333333333
 40
0.0416666666666666
 40
0.0833333333333334
 40
0.125
 40
0.1666666666666666
 40
0.2083333333333334
 40
0.2499999999996538
 40
0.2916666666666666
 40
0.3333333333333334
 40
0.375
 40
0.4166666666666666
 40
0.4583333333333334
 40
0.4999999999999999
 40
0.5416666666666667
 40
0.5833333333333333
 40
0.625
 40
0.6666666666666667
 40
0.7083333333333333
 40
0.7499999999996151
 40
0.7916666666666666
 40
0.8333333333333334
 40
0.875
 40
0.9166666666666666
 40
0.9583333333333334
 40
0.9916666666666667
 40
0.99375
 40
1.0
 40
1.0
 40
1.0
 40
1.0
 10
242.1840725563923
 20
-139.8098891496391
 30
0.0
 10
240.2068051722569
 20
-140.951341314008
 30
0.0
 10
237.4851601392758
 20
-142.4240415181262
 30
0.0
 10
223.3317710723263
 20
-149.4537873175277
 30
0.0
 10
192.9230463804738
 20
-159.8202124070649
 30
0.0
 10
136.5061668894526
 20
-166.3117460252486
 30
0.0
 10
65.76302208116932
 20
-162.0778648397963
 30
0.0
 10
-9.55825521413134
 20
-146.560835237995
 30
0.0
 10
-82.99464628975875
 20
-121.5018819512722
 30
0.0
 10
-152.0240655199167
 20
-87.76162496593516
 30
0.0
 10
-210.4702376434233
 20
-47.91178947196345
 30
0.0
 10
-253.8783212767873
 20
-5.517863284095231
 30
0.0
 10
-280.7575173465313
 20
37.96418455706962
 30
0.0
 10
-288.0916093370861
 20
78.80333276917985
 30
0.0
 10
-276.0435188523876
 20
113.6984448595842
 30
0.0
 10
-245.0270232497474
 20
141.4510896509782
 30
0.0
 10
-196.952823486975
 20
159.3565314343375
 30
0.0
 10
-136.5061668894523
 20
166.3117460252486
 30
0.0
 10
-65.76302208116898
 20
162.0778648397963
 30
0.0
 10
9.558255214131645
 20
146.5608352379948
 30
0.0
 10
82.99464628975902
 20
121.5018819512721
 30
0.0
 10
152.024065519917
 20
87.76162496593511
 30
0.0
 10
210.4702376434235
 20
47.91178947196335
 30
0.0
 10
253.8783212767874
 20
5.517863284095176
 30
0.0
 10
280.7575173465315
 20
-37.96418455706974
 30
0.0
 10
288.0916093370861
 20
-78.80333276917983
 30
0.0
 10
276.846724884701
 20
-111.3721040535573
 30
0.0
 10
258.8896042453459
 20
-128.9266871583559
 30
0.0
 10
246.7124079319073
 20
-137.0972647510717
 30
0.0
 10
244.1613399405275
 20
-138.6684369852703
 30
0.0
 10
242.1840725563923
 20
-139.8098891496391
 30
0.0
  0
SPLINE
  5
D1
330
CB
100
AcDbEntity
  8
0
  6
Continuous
 62
     7
370
    25
100
AcDbSpline
210
0.0
220
0.0
230
1.0
 70
    11
 71
     3
 72
    35
 73
    31
 74
     0
 42
0.000000001
 43
0.00000001
 40
0.0
 40
0.0
 40
0.0
 40
0.0
 40
0.0062500000000001
 40
0.0083333333333333
 40
0.0416666666666666
 40
0.0833333333333334
 40
0.125
 40
0.1666666666666666
 40
0.2083333333333334
 40
0.2499999999996538
 40
0.2916666666666666
 40
0.3333333333333334
 40
0.375
 40
0.4166666666666666
 40
0.4583333333333334
 40
0.4999999999999999
 40
0.5416666666666667
 40
0.5833333333333333
 40
0.625
 40
0.6666666666666667
 40
0.7083333333333333
 40
0.7499999999996151
 40
0.7916666666666666
 40
0.8333333333333334
 40
0.875
 40
0.9166666666666666
 40
0.9583333333333334
 40
0.9916666666666667
 40
0.99375
 40
1.0
 40
1.0
 40
1.0
 40
1.0
 10
221.0640468294941
 20
-127.6175578185703
 30
0.0
 10
219.2838369356501
 20
-128.6452511152196
 30
0.0
 10
216.8324229679658
 20
-129.970595412172
 30
0.0
 10
204.0779625325476
 20
-136.2929029885071
 30
0.0
 10
176.6272517472939
 20
-145.582636994538
 30
0.0
 10
125.5849483722791
 20
-151.2588255153999
 30
0.0
 10
61.47292301596823
 20
-147.1483163743668
 30
0.0
 10
-6.903339274532502
 20
-132.7783132657927
 30
0.0
 10
-73.706092003854
 20
-109.7527890903437
 30
0.0
 10
-136.6490074342843
 20
-78.88579286050063
 30
0.0
 10
-190.1180066588309
 20
-42.54962121967283
 30
0.0
 10
-230.0037061002175
 20
-3.985212935548738
 30
0.0
 10
-254.8959787187711
 20
35.48756308309617
 30
0.0
 10
-262.0163609042568
 20
72.49864751821235
 30
0.0
 10
-251.4815263135551
 20
104.0694630913618
 30
0.0
 10
-223.6574060259035
 20
129.1146722156816
 30
0.0
 10
-180.2731305597948
 20
145.1771949573337
 30
0.0
 10
-125.5849483722791
 20
151.2588255154
 30
0.0
 10
-61.47292301596831
 20
147.1483163743668
 30
0.0
 10
6.903339274532295
 20
132.7783132657927
 30
0.0
 10
73.70609200385397
 20
109.7527890903437
 30
0.0
 10
136.6490074342842
 20
78.8857928605007
 30
0.0
 10
190.1180066588307
 20
42.54962121967283
 30
0.0
 10
230.0037061002173
 20
3.98521293554889
 30
0.0
 10
254.8959787187711
 20
-35.48756308309611
 30
0.0
 10
262.0163609042568
 20
-72.49864751821222
 30
0.0
 10
252.1838486196021
 20
-101.9647420531519
 30
0.0
 10
236.0918137268621
 20
-117.8117000774935
 30
0.0
 10
225.1400691392379
 20
-125.1746933611419
 30
0.0
 10
222.8442567233381
 20
-126.589864521921
 30
0.0
 10
221.0640468294941
 20
-127.6175578185703
 30
0.0
  0
SPLINE
  5
D2
330
CB
100
AcDbEntity
  8
0
  6
Continuous
 62
     7
370
    25
100
AcDbSpline
210
0.0
220
0.0
230
1.0
 70
    11
 71
     3
 72
    35
 73
    31
 74
     0
 42
0.000000001
 43
0.00000001
 40
0.0
 40
0.0
 40
0.0
 40
0.0
 40
0.0062500000000001
 40
0.0083333333333333
 40
0.0416666666666666
 40
0.0833333333333334
 40
0.125
 40
0.1666666666666666
 40
0.2083333333333334
 40
0.2499999999996538
 40
0.2916666666666666
 40
0.3333333333333334
 40
0.375
 40
0.4166666666666666
 40
0.4583333333333334
 40
0.4999999999999999
 40
0.5416666666666667
 40
0.5833333333333333
 40
0.625
 40
0.6666666666666667
 40
0.7083333333333333
 40
0.7499999999996151
 40
0.7916666666666666
 40
0.8333333333333334
 40
0.875
 40
0.9166666666666666
 40
0.9583333333333334
 40
0.9916666666666667
 40
0.99375
 40
1.0
 40
1.0
 40
1.0
 40
1.0
 10
23.33452377915599
 20
-111.4556312713647
 30
0.0
 10
23.02420512370814
 20
-111.6347744179856
 30
0.0
 10
22.60165605361344
 20
-111.8685570897227
 30
0.0
 10
20.43393413010213
 20
-113.0029656319545
 30
0.0
 10
16.00090673983249
 20
-114.8285649734352
 30
0.0
 10
8.424297023536479
 20
-116.6260890334017
 30
0.0
 10
-0.0000000000001318
 20
-117.2680619119612
 30
0.0
 10
-8.42429702353673
 20
-116.6260890334017
 30
0.0
 10
-16.54209314813957
 20
-114.7001703977232
 30
0.0
 10
-23.627552540186
 20
-111.6247931743948
 30
0.0
 10
-28.95483936605337
 20
-107.5344445328852
 30
0.0
 10
-32.29098977313674
 20
-102.8481405809363
 30
0.0
 10
-33.40303990883117
 20
-97.98489742628983
 30
0.0
 10
-32.29098977313666
 20
-93.12165427164335
 30
0.0
 10
-28.95483936605322
 20
-88.4353503196945
 30
0.0
 10
-23.62755254018578
 20
-84.34500167818501
 30
0.0
 10
-16.54209314813931
 20
-81.2696244548566
 30
0.0
 10
-8.424297023536443
 20
-79.34370581917815
 30
0.0
 10
0.0000000000001631
 20
-78.7017329406187
 30
0.0
 10
8.424297023536756
 20
-79.34370581917818
 30
0.0
 10
16.5420931481396
 20
-81.26962445485665
 30
0.0
 10
23.62755254018603
 20
-84.34500167818516
 30
0.0
 10
28.9548393660534
 20
-88.43535031969465
 30
0.0
 10
32.29098977313677
 20
-93.12165427164352
 30
0.0
 10
33.4030399088312
 20
-97.98489742629
 30
0.0
 10
32.2909897731367
 20
-102.8481405809365
 30
0.0
 10
29.17724939319215
 20
-107.2220242694221
 30
0.0
 10
26.01487592973223
 20
-109.7811565091634
 30
0.0
 10
24.04980977903673
 20
-111.0325557388249
 30
0.0
 10
23.64484243460383
 20
-111.2764881247437
 30
0.0
 10
23.33452377915599
 20
-111.4556312713647
 30
0.0
  0
SPLINE
  5
D3
330
CB
100
AcDbEntity
  8
0
  6
Continuous
 62
     7
370
    25
100
AcDbSpline
210
0.0
220
0.0
230
1.0
 70
     8
 71
     3
 72
    29
 73
    25
 74
     0
 42
0.000000001
 43
0.00000001
 40
0.0
 40
0.0
 40
0.0
 40
0.0
 40
0.0438229901005701
 40
0.0893387940368415
 40
0.1340830480589766
 40
0.1788273020811233
 40
0.2243431060174678
 40
0.2705841772090256
 40
0.3170415240295016
 40
0.3634988708499776
 40
0.4097399420415353
 40
0.4552557459778799
 40
0.5000000000000265
 40
0.5447442540221861
 40
0.5902600579586121
 40
0.6365011291502516
 40
0.6829584759707428
 40
0.7294158227912033
 40
0.7756568939826793
 40
0.8211726979189424
 40
0.8659169519410763
 40
0.910661205963223
 40
0.9561770098995676
 40
1.0
 40
1.0
 40
1.0
 40
1.0
 10
-19.26304294211239
 20
-113.3660823580856
 30
0.0
 10
-19.98766771211037
 20
-112.6450610278804
 30
0.0
 10
-21.46490837807762
 20
-111.1751664367639
 30
0.0
 10
-22.71594543943339
 20
-108.7115071405263
 30
0.0
 10
-23.17230302545624
 20
-106.1512426197193
 30
0.0
 10
-22.72498708931543
 20
-103.5853233344879
 30
0.0
 10
-21.40520617216991
 20
-101.0945834610998
 30
0.0
 10
-19.27194159743846
 20
-98.76279390953889
 30
0.0
 10
-16.3782419103581
 20
-96.69536102534276
 30
0.0
 10
-12.79689530442466
 20
-95.02481869764826
 30
0.0
 10
-8.757839101111516
 20
-93.79345556439692
 30
0.0
 10
-4.442717628354319
 20
-93.03104124785794
 30
0.0
 10
0.000000000000569
 20
-92.77471600246186
 30
0.0
 10
4.442717628358154
 20
-93.03104124785831
 30
0.0
 10
8.757839101120458
 20
-93.79345556439918
 30
0.0
 10
12.79689530443881
 20
-95.02481869765214
 30
0.0
 10
16.37824191037113
 20
-96.69536102535027
 30
0.0
 10
19.27194159744533
 20
-98.76279390954706
 30
0.0
 10
21.40520617217371
 20
-101.0945834611049
 30
0.0
 10
22.72498708931615
 20
-103.5853233344901
 30
0.0
 10
23.17230302545633
 20
-106.15124261972
 30
0.0
 10
22.71594543943264
 20
-108.7115071405282
 30
0.0
 10
21.46490837807692
 20
-111.175166436765
 30
0.0
 10
19.98766771211021
 20
-112.6450610278801
 30
0.0
 10
19.26304294211427
 20
-113.366082358083
 30
0.0
  0
SPLINE
  5
D4
330
CB
100
AcDbEntity
  8
0
  6
Continuous
 62
     7
370
    25
100
AcDbSpline
210
0.0
220
0.0
230
1.0
 70
     8
 71
     3
 72
    19
 73
    15
 74
     0
 42
0.000000001
 43
0.00000001
 40
0.0
 40
0.0
 40
0.0
 40
0.0
 40
0.04757017031155
 40
0.1391884782994581
 40
0.2308067862873661
 40
0.3219985781580907
 40
0.4117600739979543
 40
0.5000000000000012
 40
0.5882399260020734
 40
0.6780014218420978
 40
0.7691932137129838
 40
0.8608115217009221
 40
0.9524298296887999
 40
1.0
 40
1.0
 40
1.0
 40
1.0
 10
-20.26296025303916
 20
-112.2743616342905
 30
0.0
 10
-19.91196802691067
 20
-111.8632034308954
 30
0.0
 10
-18.88497834977045
 20
-110.6601704315157
 30
0.0
 10
-16.35368779043042
 20
-108.95090944505
 30
0.0
 10
-12.80344194284766
 20
-107.2709468534443
 30
0.0
 10
-8.75612627895724
 20
-106.0420918717688
 30
0.0
 10
-4.44313460267818
 20
-105.2790073918911
 30
0.0
 10
0.0000000000005586
 20
-105.0229005737186
 30
0.0
 10
4.443134602682028
 20
-105.2790073918915
 30
0.0
 10
8.756126278966166
 20
-106.0420918717709
 30
0.0
 10
12.80344194286186
 20
-107.2709468534482
 30
0.0
 10
16.35368779044335
 20
-108.9509094450574
 30
0.0
 10
18.8849783497761
 20
-110.6601704315221
 30
0.0
 10
19.91196802691336
 20
-111.8632034308985
 30
0.0
 10
20.2629602530392
 20
-112.2743616342906
 30
0.0
  0
VIEWPORT
  5
F3
330
CB
100
AcDbEntity
  8
0
100
AcDbViewport
 10
0.0
 20
0.0
 30
0.0
 40
205.6
 41
156.0
 68
     1
 69
     1
 12
0.0
 22
-12.0574373589
 13
0.0
 23
0.0
 14
10.0
 24
10.0
 15
10.0
 25
10.0
 16
0.0
 26
0.0
 36
1.0
 17
0.0
 27
0.0
 37
0.0
 42
50.0
 43
0.0
 44
0.0
 45
440.8991966491
 50
0.0
 51
0.0
 72
   100
 90
   557152
  1

281
     0
 71
     1
 74
     0
110
0.0
120
0.0
130
0.0
111
1.0
121
0.0
131
0.0
112
0.0
122
1.0
132
0.0
 79
     0
146
0.0
170
     0
 61
     5
348
2F
292
     1
282
     1
141
0.0
142
0.0
 63
   256
361
F4
  0
ENDBLK
  5
CE
330
CB
100
AcDbEntity
  8
0
100
AcDbBlockEnd
  0
BLOCK
  5
D7
330
D5
100
AcDbEntity
  8
0
100
AcDbBlockBegin
  2
*Paper_Space7
 70
     0
 10
0.0
 20
0.0
 30
0.0
  3
*Paper_Space7
  1

  0
SPLINE
  5
D9
330
D5
100
AcDbEntity
  8
0
  6
Continuous
 62
     7
370
    25
100
AcDbSpline
210
0.0
220
0.0
230
1.0
 70
     8
 71
     3
 72
   122
 73
   118
 74
     0
 42
0.000000001
 43
0.00000001
 40
0.0
 40
0.0
 40
0.0
 40
0.0
 40
0.0064732192013558
 40
0.0116357648061429
 40
0.0154942205713508
 40
0.0182625950537961
 40
0.020881891851719
 40
0.0234661065123514
 40
0.0260154331426601
 40
0.0286493205300745
 40
0.033681151410787
 40
0.03984266807016
 40
0.0459651650074379
 40
0.0508188977066199
 40
0.0546453360839175
 40
0.058547685060245
 40
0.0627577057789503
 40
0.0676457124275222
 40
0.0735931070386339
 40
0.0801332679167026
 40
0.0855278062772821
 40
0.0902540035071495
 40
0.0945777690986789
 40
0.0989576524297233
 40
0.1042424545855833
 40
0.1109260443417113
 40
0.1179937485939263
 40
0.12579915005188
 40
0.1325044856305096
 40
0.1380560957287865
 40
0.143502799653603
 40
0.1511511985758705
 40
0.1603128611022618
 40
0.1703572586268041
 40
0.1805206976150075
 40
0.1901903937522279
 40
0.198959643211809
 40
0.2072625321678451
 40
0.222487666398642
 40
0.2383519208127966
 40
0.2550339282024903
 40
0.2690876549668414
 40
0.2823261206966273
 40
0.2940026211278389
 40
0.3053253469423111
 40
0.3169362499763403
 40
0.3325372461399829
 40
0.3417036905608208
 40
0.3491395497979772
 40
0.3582759267094943
 40
0.3665130853769863
 40
0.3758556955886578
 40
0.3844027066184744
 40
0.392781369142496
 40
0.4061702849445127
 40
0.4183381924118921
 40
0.4297121872559961
 40
0.4424856947310318
 40
0.4561268823325305
 40
0.4697871993950009
 40
0.4834794115330146
 40
0.4973581154310865
 40
0.5109227308782172
 40
0.5248546977829538
 40
0.539168513564272
 40
0.5538807599098574
 40
0.5682333378935926
 40
0.5816283092357005
 40
0.5901729431852923
 40
0.5983735874328275
 40
0.6064564836106972
 40
0.6144718728018657
 40
0.6222420894492374
 40
0.6306516699482952
 40
0.6402649162393258
 40
0.6505937250309244
 40
0.6610536509589192
 40
0.6706003925808005
 40
0.6790438328501558
 40
0.6827812235675393
 40
0.6860262671204563
 40
0.688780369420359
 40
0.6914483115236797
 40
0.6952261771499683
 40
0.7001145631225959
 40
0.7115211928542967
 40
0.721309165627922
 40
0.7295838872206586
 40
0.7380315354582301
 40
0.7467946017466357
 40
0.7626243182237744
 40
0.7788307883779018
 40
0.7943089539786017
 40
0.808954867001115
 40
0.8251455840282361
 40
0.8431180906182104
 40
0.858365185937416
 40
0.8715591508557922
 40
0.8819094686130482
 40
0.8940620551630226
 40
0.902847573606659
 40
0.9112476636035802
 40
0.9227527550769997
 40
0.9326921188711518
 40
0.9404687199141057
 40
0.9446598716747616
 40
0.949829254486173
 40
0.9551147380512902
 40
0.9594045590988157
 40
0.9627305538651766
 40
0.9662243054854844
 40
0.9704306244950301
 40
0.9755419840842153
 40
0.9804464442665292
 40
0.9853578256314656
 40
0.9917879197230435
 40
1.0
 40
1.0
 40
1.0
 40
1.0
 10
-305.1123597001109
 20
12.0701126454357
 30
0.0
 10
-304.2294693455472
 20
10.86581259841989
 30
0.0
 10
-302.6424530255742
 20
8.701054744990792
 30
0.0
 10
-300.4944754940906
 20
5.839439001321417
 30
0.0
 10
-298.8453674210636
 20
3.6703088371077
 30
0.0
 10
-297.5406613373402
 20
1.972284974267505
 30
0.0
 10
-296.4109870114896
 20
0.5142499949766997
 30
0.0
 10
-295.3076451299793
 20
-0.8983225921036508
 30
0.0
 10
-294.1977472420927
 20
-2.308040970831621
 30
0.0
 10
-292.7322562597145
 20
-4.154559875227067
 30
0.0
 10
-290.7349876915254
 20
-6.641548809542118
 30
0.0
 10
-288.207926558409
 20
-9.734503018570054
 30
0.0
 10
-285.6781718737117
 20
-12.77288943078796
 30
0.0
 10
-283.471400744771
 20
-15.37909983420666
 30
0.0
 10
-281.5824542053035
 20
-17.5804958875148
 30
0.0
 10
-279.7790197098867
 20
-19.65754605533197
 30
0.0
 10
-277.8016738834156
 20
-21.90684298059571
 30
0.0
 10
-275.4966353663881
 20
-24.49273306057177
 30
0.0
 10
-272.8111015241972
 20
-27.45610057917906
 30
0.0
 10
-270.017822295071
 20
-30.48021796014811
 30
0.0
 10
-267.3891203064128
 20
-33.27477235278663
 30
0.0
 10
-265.0925306414254
 20
-35.67880084517807
 30
0.0
 10
-262.9443699160928
 20
-37.89658375527861
 30
0.0
 10
-260.694421465382
 20
-40.18878970921784
 30
0.0
 10
-258.0443240015334
 20
-42.84910303775106
 30
0.0
 10
-254.9257656960348
 20
-45.92282493196232
 30
0.0
 10
-251.3574269234259
 20
-49.36623902924524
 30
0.0
 10
-247.7517690495013
 20
-52.76681220296676
 30
0.0
 10
-244.3636923909757
 20
-55.8913038734726
 30
0.0
 10
-241.3485542832218
 20
-58.61957267801417
 30
0.0
 10
-238.1518111243904
 20
-61.46325506852737
 30
0.0
 10
-234.3068500463438
 20
-64.81476140945713
 30
0.0
 10
-229.6178309919945
 20
-68.79653139548834
 30
0.0
 10
-224.4300412888686
 20
-73.07168147314513
 30
0.0
 10
-219.0886595541273
 20
-77.33597418107566
 30
0.0
 10
-213.916597006268
 20
-81.33766579441347
 30
0.0
 10
-209.0319709882569
 20
-85.00761288251144
 30
0.0
 10
-203.0789560057366
 20
-89.35937961634185
 30
0.0
 10
-195.7291593708509
 20
-94.53105472743437
 30
0.0
 10
-186.6755639973738
 20
-100.5832914949712
 30
0.0
 10
-177.7036752283148
 20
-106.2604013992897
 30
0.0
 10
-169.1156429172474
 20
-111.4123802214497
 30
0.0
 10
-161.4104347210796
 20
-115.8147927721719
 30
0.0
 10
-154.1687428734673
 20
-119.7672758700108
 30
0.0
 10
-147.1869475367702
 20
-123.4160153443479
 30
0.0
 10
-139.3470529690971
 20
-127.3349764836032
 30
0.0
 10
-131.8667654024535
 20
-130.8759681226183
 30
0.0
 10
-125.1868313692099
 20
-133.8797889989464
 30
0.0
 10
-119.818272808341
 20
-136.2099036612808
 30
0.0
 10
-114.6171346326529
 20
-138.3870251958805
 30
0.0
 10
-108.9846328372234
 20
-140.6548259313685
 30
0.0
 10
-103.4263307900708
 20
-142.8037189118153
 30
0.0
 10
-97.84699389516733
 20
-144.8711360554574
 30
0.0
 10
-91.3811277484239
 20
-147.1705199346225
 30
0.0
 10
-84.0656807785606
 20
-149.6322977949575
 30
0.0
 10
-76.0535498946516
 20
-152.1496111553068
 30
0.0
 10
-68.13041374129635
 20
-154.4769065970022
 30
0.0
 10
-59.89909970920372
 20
-156.7222543065847
 30
0.0
 10
-51.11468395200801
 20
-158.9205723377006
 30
0.0
 10
-42.05922139936018
 20
-160.9818457634317
 30
0.0
 10
-32.88990288070813
 20
-162.8654365279311
 30
0.0
 10
-23.68092880579849
 20
-164.5544291675514
 30
0.0
 10
-14.35446561411837
 20
-166.0624454425286
 30
0.0
 10
-4.866355161670478
 20
-167.3904134659351
 30
0.0
 10
4.94420187000083
 20
-168.5451281320446
 30
0.0
 10
14.92034835369125
 20
-169.4912270792542
 30
0.0
 10
24.71259918445033
 20
-170.1950636099633
 30
0.0
 10
33.0561186624347
 20
-170.6147648825567
 30
0.0
 10
39.95948920277526
 20
-170.8462744018663
 30
0.0
 10
45.596874935017
 20
-170.9638719817389
 30
0.0
 10
51.13410589622739
 20
-171.0108783677244
 30
0.0
 10
56.61892869549421
 20
-170.9897722248861
 30
0.0
 10
62.17366341406765
 20
-170.9005383813994
 30
0.0
 10
68.09268455662654
 20
-170.7312292980379
 30
0.0
 10
74.62271556621027
 20
-170.4517658130215
 30
0.0
 10
81.54919764762094
 20
-170.0452922147764
 30
0.0
 10
88.42333188895168
 20
-169.5274595006622
 30
0.0
 10
94.9415288453983
 20
-168.932214759146
 30
0.0
 10
99.94575370235022
 20
-168.4017333240249
 30
0.0
 10
103.4902326545543
 20
-167.9902078142154
 30
0.0
 10
105.7232155875007
 20
-167.7180463347557
 30
0.0
 10
107.7044982281574
 20
-167.466705584886
 30
0.0
 10
109.7954321299186
 20
-167.1920893735468
 30
0.0
 10
112.3750356285456
 20
-166.839580041163
 30
0.0
 10
116.9478408084773
 20
-166.1816960103614
 30
0.0
 10
122.8663985384981
 20
-165.2493802728702
 30
0.0
 10
129.5356410050038
 20
-164.0787883560598
 30
0.0
 10
135.5076861033003
 20
-162.9375529390509
 30
0.0
 10
141.2324533179161
 20
-161.7598915548936
 30
0.0
 10
148.6240948085113
 20
-160.1263360891116
 30
0.0
 10
157.7008108908618
 20
-157.918859005907
 30
0.0
 10
168.1830187039972
 20
-155.0580339063276
 30
0.0
 10
178.3067924447317
 20
-151.9884512666093
 30
0.0
 10
188.3260590621583
 20
-148.653240916271
 30
0.0
 10
198.7644417744125
 20
-144.8514993698718
 30
0.0
 10
209.1878427547763
 20
-140.6806489985396
 30
0.0
 10
218.8425516455835
 20
-136.466196073922
 30
0.0
 10
226.7954820524259
 20
-132.737503502086
 30
0.0
 10
234.0157755113903
 20
-129.1530041646785
 30
0.0
 10
240.2759624183466
 20
-125.874799576775
 30
0.0
 10
246.0719803663943
 20
-122.6879026210187
 30
0.0
 10
251.6706092121151
 20
-119.4860805946704
 30
0.0
 10
257.4196831440958
 20
-116.0473808297416
 30
0.0
 10
262.9700225517398
 20
-112.5651201086925
 30
0.0
 10
267.0750925754522
 20
-109.8870097942844
 30
0.0
 10
270.2494615172151
 20
-107.7612678823589
 30
0.0
 10
272.9448800025578
 20
-105.9192246796037
 30
0.0
 10
275.639423187489
 20
-104.035607069293
 30
0.0
 10
277.9806760046469
 20
-102.3647241376803
 30
0.0
 10
279.9824000692204
 20
-100.9124946666863
 30
0.0
 10
281.9534537097251
 20
-99.46141518060561
 30
0.0
 10
284.2282325652353
 20
-97.75892125120546
 30
0.0
 10
286.7340355099684
 20
-95.84571313779797
 30
0.0
 10
289.3407315126086
 20
-93.81272249181944
 30
0.0
 10
292.150160222447
 20
-91.57411168929144
 30
0.0
 10
295.4945490035772
 20
-88.85016427130165
 30
0.0
 10
297.9576233149261
 20
-86.76105580323402
 30
0.0
 10
299.3390413655385
 20
-85.58937692445296
 30
0.0
  0
SPLINE
  5
DA
330
D5
100
AcDbEntity
  8
0
  6
Continuous
 62
     7
370
    25
100
AcDbSpline
210
0.0
220
0.0
230
1.0
 70
    11
 71
     3
 72
    35
 73
    31
 74
     0
 42
0.000000001
 43
0.00000001
 40
0.0
 40
0.0
 40
0.0
 40
0.0
 40
0.0062500000000001
 40
0.0083333333333333
 40
0.0416666666666666
 40
0.0833333333333334
 40
0.125
 40
0.1666666666666666
 40
0.2083333333333334
 40
0.2499999999996538
 40
0.2916666666666666
 40
0.3333333333333334
 40
0.375
 40
0.4166666666666666
 40
0.4583333333333334
 40
0.4999999999999999
 40
0.5416666666666667
 40
0.5833333333333333
 40
0.625
 40
0.6666666666666667
 40
0.7083333333333333
 40
0.7499999999996151
 40
0.7916666666666666
 40
0.8333333333333334
 40
0.875
 40
0.9166666666666666
 40
0.9583333333333334
 40
0.9916666666666667
 40
0.99375
 40
1.0
 40
1.0
 40
1.0
 40
1.0
 10
302.9132066745169
 20
-82.32531892924301
 30
0.0
 10
301.608196461902
 20
-83.59904890369275
 30
0.0
 10
299.7615077072186
 20
-85.2683635195928
 30
0.0
 10
289.8364554792963
 20
-93.41339179707676
 30
0.0
 10
266.088598607238
 20
-106.8753877277283
 30
0.0
 10
215.5104072032979
 20
-120.9911736468427
 30
0.0
 10
145.7574092782054
 20
-128.1444707604886
 30
0.0
 10
65.85742130426124
 20
-126.3769131741156
 30
0.0
 10
-17.12399436980935
 20
-116.1894403718572
 30
0.0
 10
-100.3369395856904
 20
-97.93192900671112
 30
0.0
 10
-176.5648681732574
 20
-72.85682727674686
 30
0.0
 10
-239.7273922830829
 20
-43.32550873157769
 30
0.0
 10
-287.6552700472985
 20
-10.35219143016134
 30
0.0
 10
-315.5578525134994
 20
23.34179992786621
 30
0.0
 10
-321.9017350692616
 20
54.91791832694616
 30
0.0
 10
-306.4690446032943
 20
83.29171948589443
 30
0.0
 10
-269.7013265646621
 20
105.8671173049345
 30
0.0
 10
-215.5104072032977
 20
120.9911736468428
 30
0.0
 10
-145.7574092782051
 20
128.1444707604886
 30
0.0
 10
-65.85742130426088
 20
126.3769131741155
 30
0.0
 10
17.12399436980963
 20
116.1894403718572
 30
0.0
 10
100.3369395856907
 20
97.93192900671112
 30
0.0
 10
176.5648681732576
 20
72.85682727674681
 30
0.0
 10
239.7273922830831
 20
43.32550873157766
 30
0.0
 10
287.6552700472986
 20
10.35219143016128
 30
0.0
 10
315.5578525134995
 20
-23.34179992786621
 30
0.0
 10
321.4788095655443
 20
-52.81284376700751
 30
0.0
 10
313.304872447871
 20
-70.50749737816703
 30
0.0
 10
305.8515553660885
 20
-79.32429030549416
 30
0.0
 10
304.2182168871319
 20
-81.0515889547933
 30
0.0
 10
302.9132066745169
 20
-82.32531892924301
 30
0.0
  0
SPLINE
  5
DB
330
D5
100
AcDbEntity
  8
0
  6
Continuous
 62
     7
370
    25
100
AcDbSpline
210
0.0
220
0.0
230
1.0
 70
    11
 71
     3
 72
    35
 73
    31
 74
     0
 42
0.000000001
 43
0.00000001
 40
0.0
 40
0.0
 40
0.0
 40
0.0
 40
0.0062500000000001
 40
0.0083333333333333
 40
0.0416666666666666
 40
0.0833333333333334
 40
0.125
 40
0.1666666666666666
 40
0.2083333333333334
 40
0.2499999999996538
 40
0.2916666666666666
 40
0.3333333333333334
 40
0.375
 40
0.4166666666666666
 40
0.4583333333333334
 40
0.4999999999999999
 40
0.5416666666666667
 40
0.5833333333333333
 40
0.625
 40
0.6666666666666667
 40
0.7083333333333333
 40
0.7499999999996151
 40
0.7916666666666666
 40
0.8333333333333334
 40
0.875
 40
0.9166666666666666
 40
0.9583333333333334
 40
0.9916666666666667
 40
0.99375
 40
1.0
 40
1.0
 40
1.0
 40
1.0
 10
276.4972056119642
 20
-75.14601586687567
 30
0.0
 10
275.3222547121998
 20
-76.29280396483075
 30
0.0
 10
273.6583437172885
 20
-77.79540804485863
 30
0.0
 10
264.7078347743055
 20
-85.12462533799223
 30
0.0
 10
243.2351108273533
 20
-97.21889101260847
 30
0.0
 10
197.3745113204737
 20
-109.8220783879647
 30
0.0
 10
134.0198868564706
 20
-116.0717465022926
 30
0.0
 10
61.34192458634568
 20
-114.2253309669083
 30
0.0
 10
-14.26141282412206
 20
-104.7619052119525
 30
0.0
 10
-90.18929441524419
 20
-88.02751622991542
 30
0.0
 10
-159.8643254807691
 20
-65.19015344490113
 30
0.0
 10
-217.7022206874653
 20
-38.38711147425909
 30
0.0
 10
-261.6804476246522
 20
-8.52887442286654
 30
0.0
 10
-287.4201915882321
 20
21.93473396868932
 30
0.0
 10
-293.5089039255641
 20
50.44713942473756
 30
0.0
 10
-279.7408654528082
 20
76.02757310839415
 30
0.0
 10
-246.5108679349874
 20
96.3186633429403
 30
0.0
 10
-197.3745113204737
 20
109.8220783879648
 30
0.0
 10
-134.0198868564707
 20
116.0717465022927
 30
0.0
 10
-61.34192458634584
 20
114.2253309669082
 30
0.0
 10
14.26141282412202
 20
104.7619052119526
 30
0.0
 10
90.18929441524406
 20
88.02751622991546
 30
0.0
 10
159.8643254807689
 20
65.1901534449011
 30
0.0
 10
217.7022206874651
 20
38.3871114742592
 30
0.0
 10
261.6804476246522
 20
8.528874422866595
 30
0.0
 10
287.420191588232
 20
-21.93473396868921
 30
0.0
 10
293.1029897697422
 20
-48.54631239433432
 30
0.0
 10
285.8371990114981
 20
-64.50171809188666
 30
0.0
 10
279.1414479161892
 20
-72.44373025440164
 30
0.0
 10
277.6721565117286
 20
-73.9992277689206
 30
0.0
 10
276.4972056119642
 20
-75.14601586687567
 30
0.0
  0
SPLINE
  5
DC
330
D5
100
AcDbEntity
  8
0
  6
Continuous
 62
     7
370
    25
100
AcDbSpline
210
0.0
220
0.0
230
1.0
 70
     8
 71
     3
 72
    25
 73
    21
 74
     0
 42
0.000000001
 43
0.00000001
 40
0.0
 40
0.0
 40
0.0
 40
0.0
 40
0.0372717187622577
 40
0.0956888449737661
 40
0.1541059711852746
 40
0.2122511447009088
 40
0.2694843412810418
 40
0.3257473634581819
 40
0.3820103856353383
 40
0.4392435822155738
 40
0.4973887557313109
 40
0.5558058819428386
 40
0.6142230081543278
 40
0.6723681816698592
 40
0.7296013782498897
 40
0.7858644004270139
 40
0.8421274226041542
 40
0.899360619184287
 40
0.9575057926999213
 40
1.0
 40
1.0
 40
1.0
 40
1.0
 10
-32.41629524564933
 20
-100.1885202605701
 30
0.0
 10
-32.20109596155728
 20
-99.47585549524034
 30
0.0
 10
-31.64860813384805
 20
-97.64620903640952
 30
0.0
 10
-29.36010141490488
 20
-94.87483602884431
 30
0.0
 10
-25.71742190923127
 20
-92.04658230270265
 30
0.0
 10
-21.07412384444146
 20
-89.6600122590329
 30
0.0
 10
-15.7216118198448
 20
-87.78549584696637
 30
0.0
 10
-9.819130304843243
 20
-86.50236485381824
 30
0.0
 10
-3.541231471007168
 20
-85.84609945428818
 30
0.0
 10
2.933539266737948
 20
-85.83662969065949
 30
0.0
 10
9.374099748171108
 20
-86.46091620276218
 30
0.0
 10
15.50962382342738
 20
-87.72219674452984
 30
0.0
 10
20.99410381789126
 20
-89.61898227677855
 30
0.0
 10
25.62954393398225
 20
-92.00492552738312
 30
0.0
 10
29.26926077805163
 20
-94.76325862489011
 30
0.0
 10
31.75841085488994
 20
-97.8023580453286
 30
0.0
 10
33.04122060211527
 20
-101.03778106558
 30
0.0
 10
33.02666731703136
 20
-104.3650096630412
 30
0.0
 10
32.0396058022809
 20
-107.4041797117605
 30
0.0
 10
30.50319316156803
 20
-109.1847170062415
 30
0.0
 10
29.85445469831706
 20
-109.9365352336981
 30
0.0
  0
SPLINE
  5
DD
330
D5
100
AcDbEntity
  8
0
  6
Continuous
 62
     7
370
    25
100
AcDbSpline
210
0.0
220
0.0
230
1.0
 70
     8
 71
     3
 72
    19
 73
    15
 74
     0
 42
0.000000001
 43
0.00000001
 40
0.0
 40
0.0
 40
0.0
 40
0.0
 40
0.0484824653865337
 40
0.1391182528416365
 40
0.2282176501204382
 40
0.3173170473992656
 40
0.4079528348545306
 40
0.5000328496573694
 40
0.5925435349138323
 40
0.6850542201702341
 40
0.777134234972747
 40
0.8677700224276877
 40
0.9568694197064639
 40
1.0
 40
1.0
 40
1.0
 40
1.0
 10
-16.27529193746871
 20
-103.1550659277205
 30
0.0
 10
-15.72545797531622
 20
-102.854729208999
 30
0.0
 10
-14.1477341620199
 20
-101.9929265089999
 30
0.0
 10
-10.93848104058767
 20
-100.9347903845339
 30
0.0
 10
-6.848686329076746
 20
-100.0283764270224
 30
0.0
 10
-2.466762624778924
 20
-99.57421826374909
 30
0.0
 10
2.044250598197376
 20
-99.56672795634513
 30
0.0
 10
6.533408707585694
 20
-100.0020993073193
 30
0.0
 10
10.81030059321299
 20
-100.8810319864783
 30
0.0
 10
14.63006306168457
 20
-102.2033352697046
 30
0.0
 10
17.87112162923695
 20
-103.8652124190433
 30
0.0
 10
20.37026453578101
 20
-105.7915159093653
 30
0.0
 10
21.92262157995575
 20
-107.5358753178635
 30
0.0
 10
22.29856240929191
 20
-108.6450051125453
 30
0.0
 10
22.42118623804085
 20
-109.006779443478
 30
0.0
  0
VIEWPORT
  5
F5
330
D5
100
AcDbEntity
  8
0
100
AcDbViewport
 10
0.0
 20
0.0
 30
0.0
 40
205.6
 41
156.0
 68
     1
 69
     1
 12
0.0
 22
-12.0574373589
 13
0.0
 23
0.0
 14
10.0
 24
10.0
 15
10.0
 25
10.0
 16
0.0
 26
0.0
 36
1.0
 17
0.0
 27
0.0
 37
0.0
 42
50.0
 43
0.0
 44
0.0
 45
440.8991966491
 50
0.0
 51
0.0
 72
   100
 90
   557152
  1

281
     0
 71
     1
 74
     0
110
0.0
120
0.0
130
0.0
111
1.0
121
0.0
131
0.0
112
0.0
122
1.0
132
0.0
 79
     0
146
0.0
170
     0
 61
     5
348
2F
292
     1
282
     1
141
0.0
142
0.0
 63
   256
361
F6
  0
ENDBLK
  5
D8
330
D5
100
AcDbEntity
  8
0
100
AcDbBlockEnd
  0
BLOCK
  5
E0
330
DE
100
AcDbEntity
  8
0
100
AcDbBlockBegin
  2
*Paper_Space8
 70
     0
 10
0.0
 20
0.0
 30
0.0
  3
*Paper_Space8
  1

  0
SPLINE
  5
E2
330
DE
100
AcDbEntity
  8
0
  6
Continuous
 62
     7
370
    25
100
AcDbSpline
210
0.0
220
0.0
230
1.0
 70
     8
 71
     3
 72
   152
 73
   148
 74
     0
 42
0.000000001
 43
0.00000001
 40
0.0
 40
0.0
 40
0.0
 40
0.0
 40
0.0073348533639865
 40
0.0131151892005602
 40
0.0174501999500845
 40
0.0216715121879916
 40
0.0261895914885377
 40
0.0324233885636736
 40
0.0385239142859058
 40
0.0441995544889502
 40
0.0493133730347544
 40
0.0549336260512792
 40
0.0616104439889041
 40
0.0680087848068587
 40
0.0739489798612736
 40
0.0795917020217271
 40
0.0850099034633359
 40
0.0903234972093233
 40
0.0963133129635831
 40
0.103250380530811
 40
0.1071217730724479
 40
0.1100448100078611
 40
0.1128035688030487
 40
0.1164711269334201
 40
0.1207930097054225
 40
0.1251648854691348
 40
0.14184671453846
 40
0.1565571511429242
 40
0.1712571192501991
 40
0.1864736012730559
 40
0.2025766974804032
 40
0.2162388811750552
 40
0.2346853104512641
 40
0.2486880024858275
 40
0.2585330058226673
 40
0.2686397069072118
 40
0.2797054838229885
 40
0.2909613344523959
 40
0.3016970783844984
 40
0.3129185390784118
 40
0.3255867289819829
 40
0.3337205695013572
 40
0.3407492321646755
 40
0.346367019993426
 40
0.3521235056695766
 40
0.3591873156482738
 40
0.3634940172951703
 40
0.3679110644515737
 40
0.3717961181365513
 40
0.3749332568582107
 40
0.3783760210398519
 40
0.3828104321249139
 40
0.3872652113903697
 40
0.3914102465054175
 40
0.3949861192384494
 40
0.398814043133541
 40
0.403193273868376
 40
0.4074081203939412
 40
0.4122415597642112
 40
0.4165329438240239
 40
0.4198493306958633
 40
0.4254218689310382
 40
0.4321668180619961
 40
0.4390007555726545
 40
0.4453016306859607
 40
0.4558679522013667
 40
0.4663726478891197
 40
0.4776775851860217
 40
0.4907204336473256
 40
0.5000877456147863
 40
0.5101582539037636
 40
0.5209076854434406
 40
0.5313537486361234
 40
0.540667611472811
 40
0.5487556695590148
 40
0.5558292531580928
 40
0.5619179737911917
 40
0.5674913788836763
 40
0.5754974712310786
 40
0.5847317990751593
 40
0.5936541844230919
 40
0.6032574321507203
 40
0.6125795586151248
 40
0.6205218464824032
 40
0.6278583279977318
 40
0.6351941672406684
 40
0.6426496197543425
 40
0.6516083213086102
 40
0.6580138717739122
 40
0.6631123003325815
 40
0.6692042405453351
 40
0.6754037567207034
 40
0.6800406702781575
 40
0.6842056074309543
 40
0.6884312167921276
 40
0.6964125583272708
 40
0.7055989504421946
 40
0.7152625119353233
 40
0.724604532163466
 40
0.7336491647206103
 40
0.7423599468157124
 40
0.7483838071935559
 40
0.7548851662209872
 40
0.7619174361928192
 40
0.7693434408199608
 40
0.7767421022443511
 40
0.7831543321592064
 40
0.7882662046741864
 40
0.7933506300400142
 40
0.7993761184375973
 40
0.8062682047914056
 40
0.8130296294219873
 40
0.8180803599264554
 40
0.822255590590217
 40
0.8269334040648002
 40
0.8327444560842435
 40
0.8383237858740092
 40
0.843194656276632
 40
0.8465830042335013
 40
0.8496077490541444
 40
0.8526660257623337
 40
0.8566359528827304
 40
0.8615496241643832
 40
0.8668742385528765
 40
0.8725079653266515
 40
0.8771969146374158
 40
0.8818300515840187
 40
0.8870496348012826
 40
0.8923070045863652
 40
0.896552296378554
 40
0.9001968586559983
 40
0.9044793713322614
 40
0.912509481470282
 40
0.9202974536503618
 40
0.9274743742479505
 40
0.9349826955292921
 40
0.9428367901044821
 40
0.9508423002152877
 40
0.9590778904380496
 40
0.9672948404043791
 40
0.9704755579912716
 40
0.9732760755717194
 40
0.9759886215358485
 40
0.9799217407064542
 40
0.9852338505636747
 40
0.991926099519921
 40
1.0
 40
1.0
 40
1.0
 40
1.0
 10
-323.6482848586447
 20
10.41898577804597
 30
0.0
 10
-322.5412113696566
 20
9.002562351829335
 30
0.0
 10
-320.561692823547
 20
6.469906237100878
 30
0.0
 10
-317.8801991873196
 20
3.140451677220227
 30
0.0
 10
-315.6608544347416
 20
0.4287917306751571
 30
0.0
 10
-313.6157074004818
 20
-2.032151888991474
 30
0.0
 10
-311.2488444549028
 20
-4.837488817461572
 30
0.0
 10
-308.5519053213325
 20
-7.97464125629585
 30
0.0
 10
-305.640211857794
 20
-11.28973380463601
 30
0.0
 10
-302.8815656396317
 20
-14.3672263948664
 30
0.0
 10
-300.1737170142119
 20
-17.33226447516815
 30
0.0
 10
-297.2708412861222
 20
-20.45251782673303
 30
0.0
 10
-294.115645715498
 20
-23.77271910031059
 30
0.0
 10
-290.875090221882
 20
-27.10666294682568
 30
0.0
 10
-287.7864776925639
 20
-30.21764174338716
 30
0.0
 10
-284.8333678834827
 20
-33.13351272871796
 30
0.0
 10
-281.9606980494758
 20
-35.91641456022759
 30
0.0
 10
-279.0020271577142
 20
-38.73007518663859
 30
0.0
 10
-275.7471381503098
 20
-41.76564918600971
 30
0.0
 10
-272.7192429013081
 20
-44.52715982783853
 30
0.0
 10
-270.2229001093833
 20
-46.76166070785009
 30
0.0
 10
-268.4781138742247
 20
-48.30513227419231
 30
0.0
 10
-266.7648189160038
 20
-49.80587618244608
 30
0.0
 10
-264.7841485293636
 20
-51.52156188207081
 30
0.0
 10
-262.4920879857863
 20
-53.47952710292589
 30
0.0
 10
-257.7609481330665
 20
-57.46011303598267
 30
0.0
 10
-251.0018933081399
 20
-62.94121750922907
 30
0.0
 10
-242.0806867187694
 20
-69.7838494853121
 30
0.0
 10
-233.3335384741869
 20
-76.14831698396969
 30
0.0
 10
-224.1329435280144
 20
-82.48886361823432
 30
0.0
 10
-214.976989385224
 20
-88.44148136635367
 30
0.0
 10
-205.0279832856586
 20
-94.55425796112739
 30
0.0
 10
-195.3534582801021
 20
-100.1376889638365
 30
0.0
 10
-186.3468303824382
 20
-105.006487626114
 30
0.0
 10
-179.0442053467826
 20
-108.7631338214724
 30
0.0
 10
-172.3188747901391
 20
-112.0783025465237
 30
0.0
 10
-165.2341356208927
 20
-115.4120793401896
 30
0.0
 10
-157.956505871933
 20
-118.6689620058774
 30
0.0
 10
-150.5947455969812
 20
-121.8001251954335
 30
0.0
 10
-142.8737317693053
 20
-124.9168268598967
 30
0.0
 10
-135.6811874260548
 20
-127.6542100545499
 30
0.0
 10
-129.4019713961269
 20
-129.9205384347592
 30
0.0
 10
-124.6854382091792
 20
-131.5561846652135
 30
0.0
 10
-120.499040116023
 20
-132.9590869084755
 30
0.0
 10
-116.2946503280825
 20
-134.3243166707206
 30
0.0
 10
-112.375903055617
 20
-135.5512407125892
 30
0.0
 10
-108.7530394022973
 20
-136.6484705461521
 30
0.0
 10
-105.8540458934704
 20
-137.5038807548059
 30
0.0
 10
-103.2149235703333
 20
-138.2631482018402
 30
0.0
 10
-100.7965890295169
 20
-138.9438614350222
 30
0.0
 10
-98.25482170860676
 20
-139.6446209055005
 30
0.0
 10
-95.4019884749394
 20
-140.4115461792512
 30
0.0
 10
-92.37398347734147
 20
-141.2021868216945
 30
0.0
 10
-89.53968416713708
 20
-141.9211739580942
 30
0.0
 10
-86.85397130389266
 20
-142.5847107491722
 30
0.0
 10
-84.10748522163388
 20
-143.2459780383815
 30
0.0
 10
-81.20872915112986
 20
-143.9237922290545
 30
0.0
 10
-78.07117560301245
 20
-144.6348561979687
 30
0.0
 10
-74.94268152989197
 20
-145.320331135007
 30
0.0
 10
-72.01428795774255
 20
-145.9398824931382
 30
0.0
 10
-68.90557472533312
 20
-146.5781486456225
 30
0.0
 10
-65.23408015022845
 20
-147.3054030649265
 30
0.0
 10
-60.74954682030757
 20
-148.1496211078956
 30
0.0
 10
-56.06113924681562
 20
-148.9820843015896
 30
0.0
 10
-50.42237425588354
 20
-149.925240360744
 30
0.0
 10
-43.87374588125662
 20
-150.933822403436
 30
0.0
 10
-36.14310318826037
 20
-151.9972549941067
 30
0.0
 10
-27.81740076829442
 20
-153.0005772618815
 30
0.0
 10
-19.72398203434933
 20
-153.8264673987528
 30
0.0
 10
-11.87988955631656
 20
-154.4977356848149
 30
0.0
 10
-4.54984448862951
 20
-155.0217370043831
 30
0.0
 10
3.085246854788496
 20
-155.4529006789744
 30
0.0
 10
10.57474089470915
 20
-155.7607221762798
 30
0.0
 10
17.43508734985504
 20
-155.9436462999648
 30
0.0
 10
23.47692662880407
 20
-156.02734613975
 30
0.0
 10
28.72719376280931
 20
-156.0411550618967
 30
0.0
 10
33.35661949138888
 20
-156.0080948420687
 30
0.0
 10
38.20786006097984
 20
-155.9315035190537
 30
0.0
 10
43.82569118370058
 20
-155.78647803784
 30
0.0
 10
50.27255511335869
 20
-155.5376975343533
 30
0.0
 10
57.12147361227468
 20
-155.1799535646124
 30
0.0
 10
63.97969197246181
 20
-154.7245735532732
 30
0.0
 10
70.5928675998248
 20
-154.1878384819361
 30
0.0
 10
76.63834302234412
 20
-153.613529358113
 30
0.0
 10
82.18985906386928
 20
-153.0174412142258
 30
0.0
 10
87.61548531972929
 20
-152.3699917854809
 30
0.0
 10
93.42655830843137
 20
-151.6059230547152
 30
0.0
 10
99.00439736932765
 20
-150.796504106906
 30
0.0
 10
103.993134077631
 20
-150.0080188385542
 30
0.0
 10
108.275888629614
 20
-149.2891710012068
 30
0.0
 10
112.4981663304494
 20
-148.5398605148665
 30
0.0
 10
116.6032901466639
 20
-147.7674708714688
 30
0.0
 10
120.233751992988
 20
-147.049704175457
 30
0.0
 10
123.3790107001664
 20
-146.4032602648411
 30
0.0
 10
127.3261379805248
 20
-145.5623251302746
 30
0.0
 10
132.460837365207
 20
-144.411818264714
 30
0.0
 10
138.8955013034588
 20
-142.8688974368075
 30
0.0
 10
145.6149446651694
 20
-141.13952310303
 30
0.0
 10
152.2686050079101
 20
-139.3073273313423
 30
0.0
 10
158.6619340800504
 20
-137.4334816588383
 30
0.0
 10
164.2427697874875
 20
-135.7006452668458
 30
0.0
 10
169.2012283120362
 20
-134.0883297961881
 30
0.0
 10
173.7497411175162
 20
-132.551896854447
 30
0.0
 10
178.6008178486553
 20
-130.8462491939674
 30
0.0
 10
183.6342482801444
 20
-129.0011447525878
 30
0.0
 10
188.4937006465797
 20
-127.1441798744565
 30
0.0
 10
192.805404510004
 20
-125.4330887370538
 30
0.0
 10
196.5725546026615
 20
-123.8911496224077
 30
0.0
 10
200.2327565218614
 20
-122.352184657452
 30
0.0
 10
204.2716532732649
 20
-120.6044406362253
 30
0.0
 10
208.6644610562441
 20
-118.6400234997199
 30
0.0
 10
212.8123459887201
 20
-116.7207112418439
 30
0.0
 10
216.3387727248294
 20
-115.0408665118387
 30
0.0
 10
219.3911276101032
 20
-113.5538989523893
 30
0.0
 10
222.5909673273909
 20
-111.9616199826967
 30
0.0
 10
226.0795601356625
 20
-110.1819638269973
 30
0.0
 10
229.5910159354387
 20
-108.3421476908929
 30
0.0
 10
232.5608694696491
 20
-106.7479366900498
 30
0.0
 10
234.9711031650484
 20
-105.4293616294125
 30
0.0
 10
236.986508652777
 20
-104.3105440912002
 30
0.0
 10
239.1155916580483
 20
-103.1122207234309
 30
0.0
 10
241.6325841429688
 20
-101.6730005235843
 30
0.0
 10
244.6128279914
 20
-99.934755384224
 30
0.0
 10
247.924080074289
 20
-97.95910774649954
 30
0.0
 10
251.1672227542067
 20
-95.97686315056252
 30
0.0
 10
254.2440795382737
 20
-94.0533887690811
 30
0.0
 10
257.2133960069358
 20
-92.15930742451474
 30
0.0
 10
260.2781656867379
 20
-90.16250909606441
 30
0.0
 10
263.2437090152372
 20
-88.1866404513275
 30
0.0
 10
265.875339467469
 20
-86.3974828893534
 30
0.0
 10
268.2950989001806
 20
-84.72470376656577
 30
0.0
 10
271.4464247539862
 20
-82.50959618796911
 30
0.0
 10
275.380563318149
 20
-79.67214953416791
 30
0.0
 10
279.8282045713341
 20
-76.35707807080193
 30
0.0
 10
284.1200970588522
 20
-73.05760907561219
 30
0.0
 10
288.3697121392071
 20
-69.69058457390672
 30
0.0
 10
292.7169293067882
 20
-66.13632241320592
 30
0.0
 10
297.1367546352654
 20
-62.40402158513046
 30
0.0
 10
301.5557311705016
 20
-58.54724531908369
 30
0.0
 10
305.0474189175742
 20
-55.396426135451
 30
0.0
 10
307.5446997646244
 20
-53.09031556587199
 30
0.0
 10
309.0643013152296
 20
-51.66995472244015
 30
0.0
 10
310.7044607983193
 20
-50.11967898512684
 30
0.0
 10
312.7651637436267
 20
-48.14580343527685
 30
0.0
 10
315.4862486341979
 20
-45.4888751560875
 30
0.0
 10
318.8775496666063
 20
-42.10338143570083
 30
0.0
 10
321.3240945822751
 20
-39.56443693446052
 30
0.0
 10
322.6618272291194
 20
-38.17618163365547
 30
0.0
  0
SPLINE
  5
E3
330
DE
100
AcDbEntity
  8
0
  6
Continuous
 62
     7
370
    25
100
AcDbSpline
210
0.0
220
0.0
230
1.0
 70
    11
 71
     3
 72
    35
 73
    31
 74
     0
 42
0.000000001
 43
0.00000001
 40
0.0
 40
0.0
 40
0.0
 40
0.0
 40
0.0062500000000001
 40
0.0083333333333333
 40
0.0416666666666666
 40
0.0833333333333334
 40
0.125
 40
0.1666666666666666
 40
0.2083333333333334
 40
0.2499999999996538
 40
0.2916666666666666
 40
0.3333333333333334
 40
0.375
 40
0.4166666666666666
 40
0.4583333333333334
 40
0.4999999999999999
 40
0.5416666666666667
 40
0.5833333333333333
 40
0.625
 40
0.6666666666666667
 40
0.7083333333333333
 40
0.7499999999996151
 40
0.7916666666666666
 40
0.8333333333333334
 40
0.875
 40
0.9166666666666666
 40
0.9583333333333334
 40
0.9916666666666667
 40
0.99375
 40
1.0
 40
1.0
 40
1.0
 40
1.0
 10
320.3794137530185
 20
-40.36401207386833
 30
0.0
 10
319.3907800611776
 20
-41.23590503600634
 30
0.0
 10
317.9597756975226
 20
-42.38421423206353
 30
0.0
 10
310.0700007117633
 20
-48.02487990076187
 30
0.0
 10
289.7425774447772
 20
-57.65091278599999
 30
0.0
 10
242.9486701876084
 20
-68.80459658666315
 30
0.0
 10
175.4531690789139
 20
-76.2785422390883
 30
0.0
 10
95.74338967384035
 20
-78.44231111989136
 30
0.0
 10
10.95095727447185
 20
-75.32589104603584
 30
0.0
 10
-76.01203274252045
 20
-67.03631176336157
 30
0.0
 10
-157.6833992074009
 20
-54.0799591636875
 30
0.0
 10
-227.4616778890821
 20
-37.72230012847876
 30
0.0
 10
-282.9504166869339
 20
-18.52511902812865
 30
0.0
 10
-318.7413913940377
 20
1.961699418021379
 30
0.0
 10
-332.630347065352
 20
21.97850260043288
 30
0.0
 10
-324.1402840152601
 20
40.83783718920617
 30
0.0
 10
-293.0849993917177
 20
56.8542210859527
 30
0.0
 10
-242.9486701876082
 20
68.80459658666321
 30
0.0
 10
-175.4531690789136
 20
76.27854223908834
 30
0.0
 10
-95.74338967383996
 20
78.44231111989133
 30
0.0
 10
-10.95095727447154
 20
75.32589104603585
 30
0.0
 10
76.01203274252072
 20
67.03631176336158
 30
0.0
 10
157.6833992074012
 20
54.07995916368748
 30
0.0
 10
227.4616778890823
 20
37.72230012847874
 30
0.0
 10
282.9504166869341
 20
18.5251190281286
 30
0.0
 10
318.7413913940377
 20
-1.961699418021379
 30
0.0
 10
331.7044166872645
 20
-20.64404905493879
 30
0.0
 10
327.8489172941945
 20
-32.34534928128997
 30
0.0
 10
322.5733995927799
 20
-38.31538040875289
 30
0.0
 10
321.3680474448593
 20
-39.49211911173034
 30
0.0
 10
320.3794137530185
 20
-40.36401207386833
 30
0.0
  0
SPLINE
  5
E4
330
DE
100
AcDbEntity
  8
0
  6
Continuous
 62
     7
370
    25
100
AcDbSpline
210
0.0
220
0.0
230
1.0
 70
    11
 71
     3
 72
    35
 73
    31
 74
     0
 42
0.000000001
 43
0.00000001
 40
0.0
 40
0.0
 40
0.0
 40
0.0
 40
0.0062500000000001
 40
0.0083333333333333
 40
0.0416666666666666
 40
0.0833333333333334
 40
0.125
 40
0.1666666666666666
 40
0.2083333333333334
 40
0.2499999999996538
 40
0.2916666666666666
 40
0.3333333333333334
 40
0.375
 40
0.4166666666666666
 40
0.4583333333333334
 40
0.4999999999999999
 40
0.5416666666666667
 40
0.5833333333333333
 40
0.625
 40
0.6666666666666667
 40
0.7083333333333333
 40
0.7499999999996151
 40
0.7916666666666666
 40
0.8333333333333334
 40
0.875
 40
0.9166666666666666
 40
0.9583333333333334
 40
0.9916666666666667
 40
0.99375
 40
1.0
 40
1.0
 40
1.0
 40
1.0
 10
292.4402458737735
 20
-36.84400778769704
 30
0.0
 10
291.5501409270557
 20
-37.62900656430401
 30
0.0
 10
290.2604135790191
 20
-38.66270480380396
 30
0.0
 10
283.1414778701349
 20
-43.73920540049254
 30
0.0
 10
264.7427335442438
 20
-52.39292211333135
 30
0.0
 10
222.2663149304204
 20
-62.38040813318517
 30
0.0
 10
160.9025952284401
 20
-69.00985039147668
 30
0.0
 10
88.34026068174973
 20
-70.82479104112721
 30
0.0
 10
11.04321930747176
 20
-67.86873911538508
 30
0.0
 10
-68.324503701466
 20
-60.25654841679446
 30
0.0
 10
-142.9552686085487
 20
-48.46675334862208
 30
0.0
 10
-206.7937833419456
 20
-33.64139658755767
 30
0.0
 10
-257.6141230576511
 20
-16.28170012699594
 30
0.0
 10
-290.4820211807573
 20
2.21981004938028
 30
0.0
 10
-303.380961313942
 20
20.27957919049196
 30
0.0
 10
-295.8709376208668
 20
37.27623432023005
 30
0.0
 10
-267.7767634452312
 20
51.67953025477047
 30
0.0
 10
-222.2663149304204
 20
62.38040813318524
 30
0.0
 10
-160.9025952284402
 20
69.00985039147669
 30
0.0
 10
-88.34026068174985
 20
70.82479104112718
 30
0.0
 10
-11.04321930747182
 20
67.86873911538515
 30
0.0
 10
68.32450370146589
 20
60.25654841679451
 30
0.0
 10
142.9552686085485
 20
48.46675334862209
 30
0.0
 10
206.7937833419454
 20
33.64139658755777
 30
0.0
 10
257.6141230576511
 20
16.28170012699599
 30
0.0
 10
290.4820211807573
 20
-2.219810049380211
 30
0.0
 10
302.5210319717299
 20
-19.07559458108448
 30
0.0
 10
299.1484034636194
 20
-29.62242394179098
 30
0.0
 10
294.4142366637021
 20
-34.99937717963815
 30
0.0
 10
293.3303508204913
 20
-36.05900901109008
 30
0.0
 10
292.4402458737735
 20
-36.84400778769704
 30
0.0
  0
VIEWPORT
  5
F7
330
DE
100
AcDbEntity
  8
0
100
AcDbViewport
 10
0.0
 20
0.0
 30
0.0
 40
205.6
 41
156.0
 68
     1
 69
     1
 12
0.0
 22
-12.0574373589
 13
0.0
 23
0.0
 14
10.0
 24
10.0
 15
10.0
 25
10.0
 16
0.0
 26
0.0
 36
1.0
 17
0.0
 27
0.0
 37
0.0
 42
50.0
 43
0.0
 44
0.0
 45
440.8991966491
 50
0.0
 51
0.0
 72
   100
 90
   557152
  1

281
     0
 71
     1
 74
     0
110
0.0
120
0.0
130
0.0
111
1.0
121
0.0
131
0.0
112
0.0
122
1.0
132
0.0
 79
     0
146
0.0
170
     0
 61
     5
348
2F
292
     1
282
     1
141
0.0
142
0.0
 63
   256
361
F8
  0
ENDBLK
  5
E1
330
DE
100
AcDbEntity
  8
0
100
AcDbBlockEnd
  0
ENDSEC
  0
SECTION
  2
ENTITIES
  0
SPLINE
  5
73
330
1F
100
AcDbEntity
  8
0
  6
Continuous
 62
     7
370
    25
100
AcDbSpline
210
0.0
220
0.0
230
1.0
 70
     8
 71
     3
 72
   151
 73
   147
 74
     0
 42
0.000000001
 43
0.00000001
 40
0.0
 40
0.0
 40
0.0
 40
0.0
 40
0.0064090483438804
 40
0.0114334167215785
 40
0.0151748504736369
 40
0.0187344834268033
 40
0.0224385149739633
 40
0.0263921652221817
 40
0.0333430219732557
 40
0.0406973708738771
 40
0.0481243473879402
 40
0.058043204617718
 40
0.0667145385357476
 40
0.0744051650909121
 40
0.0818028995410382
 40
0.0868703370879341
 40
0.0922869903345549
 40
0.0987084451479635
 40
0.1057237362735426
 40
0.1124970772750715
 40
0.1182577820248719
 40
0.1238735627903619
 40
0.1295018684726402
 40
0.1360636791813842
 40
0.1439907153677239
 40
0.1511207644056042
 40
0.1564433183184319
 40
0.1610340779124279
 40
0.1658476562612271
 40
0.1720196006530796
 40
0.1786461633982123
 40
0.1845580839842261
 40
0.1893067909959188
 40
0.1938785530364345
 40
0.1993399083286412
 40
0.2054815200299017
 40
0.2137624972445368
 40
0.2209683633782193
 40
0.22989067023181
 40
0.237409813431868
 40
0.2450017677745877
 40
0.2554086473872331
 40
0.2604271257763356
 40
0.2645179935556111
 40
0.2677894243520968
 40
0.2717805318219161
 40
0.277499824660035
 40
0.2813484291938713
 40
0.2840475985001196
 40
0.2871026318202285
 40
0.2912742454113554
 40
0.2961293432493023
 40
0.3021880129196847
 40
0.3072394500818896
 40
0.3131468779348059
 40
0.3184216192210345
 40
0.3231978773249976
 40
0.3292054983408317
 40
0.337087544667995
 40
0.3444320923462956
 40
0.3516952662442034
 40
0.356825359055757
 40
0.3625914466134643
 40
0.3696546582313834
 40
0.377842013199785
 40
0.3863064299298801
 40
0.3977987593957465
 40
0.409218439452228
 40
0.4201835067735731
 40
0.4306000025320689
 40
0.4406394002824729
 40
0.4516759352134355
 40
0.4596575176457456
 40
0.4681759447812566
 40
0.4765155803374266
 40
0.4829426606743468
 40
0.4866219389237667
 40
0.4891250306951613
 40
0.4917996993939394
 40
0.4955546766839535
 40
0.5016268080784403
 40
0.5092939036067129
 40
0.5185155712345583
 40
0.5278936882787514
 40
0.536553673013404
 40
0.5445115941507322
 40
0.5556288637062277
 40
0.5650877030849083
 40
0.5729284899212203
 40
0.5773646589976895
 40
0.5826166938658882
 40
0.5892341148138215
 40
0.5972072807896166
 40
0.6062940086561643
 40
0.6149993214656102
 40
0.6230626693494924
 40
0.6304944193947947
 40
0.6381949704544406
 40
0.6445546229192041
 40
0.6494598123521791
 40
0.654837429675798
 40
0.6613501289106953
 40
0.6688545917272252
 40
0.677480289937312
 40
0.6872200336261641
 40
0.6974517610583437
 40
0.7073687356727649
 40
0.7160436420713928
 40
0.7234494183040481
 40
0.7303810275166402
 40
0.7369209003703333
 40
0.7428273755685189
 40
0.7493594658581835
 40
0.7592328720799918
 40
0.7684714555918378
 40
0.7796808023769839
 40
0.7885178984909328
 40
0.7984199834684301
 40
0.808551948099288
 40
0.818181588000844
 40
0.8260073989726329
 40
0.8345400130616241
 40
0.8404914386496442
 40
0.8467615991397115
 40
0.8540322133298711
 40
0.8623652050106969
 40
0.8712225226556893
 40
0.8800538003029055
 40
0.8881324432229449
 40
0.8959126087884008
 40
0.904609214180423
 40
0.9144844394716001
 40
0.9247051016765363
 40
0.9335954502079629
 40
0.9412122430987149
 40
0.9462167673253041
 40
0.9513711589151419
 40
0.9579970275796217
 40
0.9657531779022035
 40
0.9725063084254092
 40
0.976327320112308
 40
0.9798113636655813
 40
0.9829704803285726
 40
0.9867511953236598
 40
0.9924292179094246
 40
1.0
 40
1.0
 40
1.0
 40
1.0
 10
-270.3052579791778
 20
22.57489319963222
 30
0.0
 10
-269.6495433276426
 20
21.40025596707004
 30
0.0
 10
-268.479781693904
 20
19.30476280553242
 30
0.0
 10
-266.9036624075165
 20
16.54722279441091
 30
0.0
 10
-265.6244805601104
 20
14.33679008738426
 30
0.0
 10
-264.4712315824227
 20
12.36695643138611
 30
0.0
 10
-263.2813961742877
 20
10.35725968612775
 30
0.0
 10
-261.7168235154944
 20
7.745848689011556
 30
0.0
 10
-259.7388813614894
 20
4.499525554502309
 30
0.0
 10
-257.3479548704242
 20
0.6605226291829663
 30
0.0
 10
-254.5884834323562
 20
-3.671534750779484
 30
0.0
 10
-251.6297950165057
 20
-8.19595411373731
 30
0.0
 10
-248.5844099241075
 20
-12.72443286906055
 30
0.0
 10
-245.7866145558687
 20
-16.78404597274723
 30
0.0
 10
-243.3781193584721
 20
-20.2010151010598
 30
0.0
 10
-241.2158290399755
 20
-23.21233404793827
 30
0.0
 10
-239.1510317842846
 20
-26.04347580844791
 30
0.0
 10
-236.8237329442318
 20
-29.17908169710531
 30
0.0
 10
-234.2964251487497
 20
-32.51713836224886
 30
0.0
 10
-231.8218628799556
 20
-35.71958245767912
 30
0.0
 10
-229.4970396376877
 20
-38.67302010209364
 30
0.0
 10
-227.2979851321579
 20
-41.42010430180802
 30
0.0
 10
-224.9724228068325
 20
-44.27738386284955
 30
0.0
 10
-222.3172036585278
 20
-47.48145660223832
 30
0.0
 10
-219.4299137051125
 20
-50.89178542344397
 30
0.0
 10
-216.6719793027254
 20
-54.07757500717612
 30
0.0
 10
-214.3415138417832
 20
-56.72033625142998
 30
0.0
 10
-212.3126447076949
 20
-58.98750227722289
 30
0.0
 10
-210.1507644417681
 20
-61.36981065681011
 30
0.0
 10
-207.6853785026928
 20
-64.04257771133757
 30
0.0
 10
-205.0389182399256
 20
-66.85746195561443
 30
0.0
 10
-202.5712084302258
 20
-69.43353839698244
 30
0.0
 10
-200.3776215928112
 20
-71.68718603779344
 30
0.0
 10
-198.2365805384875
 20
-73.85631010944357
 30
0.0
 10
-195.8747165711682
 20
-76.21333793298737
 30
0.0
 10
-192.9492690009683
 20
-79.08219587561335
 30
0.0
 10
-189.7297767688869
 20
-82.1712582996445
 30
0.0
 10
-186.0628734151142
 20
-85.60773493175908
 30
0.0
 10
-182.4678402862683
 20
-88.89496927656474
 30
0.0
 10
-178.7732413207935
 20
-92.18886881005264
 30
0.0
 10
-174.8195609262161
 20
-95.63247951723703
 30
0.0
 10
-171.2066716246872
 20
-98.6925322152497
 30
0.0
 10
-168.1134615514935
 20
-101.2498049125126
 30
0.0
 10
-166.1401263994292
 20
-102.8580224683194
 30
0.0
 10
-164.3193388328042
 20
-104.3247203120022
 30
0.0
 10
-162.2363068515752
 20
-105.9834404279855
 30
0.0
 10
-160.0485271805356
 20
-107.69893894414
 30
0.0
 10
-158.0545233800466
 20
-109.2387513083583
 30
0.0
 10
-156.4873794773304
 20
-110.4362468728942
 30
0.0
 10
-154.8667333908766
 20
-111.663194311647
 30
0.0
 10
-152.8851527407673
 20
-113.1459929271374
 30
0.0
 10
-150.3948792287762
 20
-114.9822956801284
 30
0.0
 10
-147.7391159366906
 20
-116.9058755048383
 30
0.0
 10
-144.8937609367796
 20
-118.9292101244399
 30
0.0
 10
-142.1650068616955
 20
-120.8345123890015
 30
0.0
 10
-139.4628250734546
 20
-122.6860275608939
 30
0.0
 10
-136.7348052805593
 20
-124.523556381416
 30
0.0
 10
-133.5430802943367
 20
-126.6340356150019
 30
0.0
 10
-129.8812907402137
 20
-128.9974730802246
 30
0.0
 10
-125.9768756889928
 20
-131.4504939412806
 30
0.0
 10
-122.5212052048073
 20
-133.5652399483063
 30
0.0
 10
-119.3218420608383
 20
-135.4789961876172
 30
0.0
 10
-116.1716791346958
 20
-137.3255817551231
 30
0.0
 10
-112.4710059017239
 20
-139.4432492990211
 30
0.0
 10
-108.2672585756404
 20
-141.7802566357822
 30
0.0
 10
-103.1992411044728
 20
-144.5093273487527
 30
0.0
 10
-97.44071502790811
 20
-147.4911772108705
 30
0.0
 10
-91.14689308107812
 20
-150.6009962023747
 30
0.0
 10
-85.106878195556
 20
-153.4507574111263
 30
0.0
 10
-79.25836042696153
 20
-156.0894675106477
 30
0.0
 10
-73.36740885538602
 20
-158.6320043002628
 30
0.0
 10
-67.88942179896804
 20
-160.8878706845242
 30
0.0
 10
-62.65264316893428
 20
-162.951555227275
 30
0.0
 10
-57.89102532485209
 20
-164.7552749133226
 30
0.0
 10
-53.38851162768751
 20
-166.3910266238418
 30
0.0
 10
-49.79510432413347
 20
-167.6478642352996
 30
0.0
 10
-47.33134601566735
 20
-168.4868781337199
 30
0.0
 10
-45.60309895042572
 20
-169.0657223684651
 30
0.0
 10
-43.88000731495554
 20
-169.6348499197568
 30
0.0
 10
-41.46981245151509
 20
-170.4172170151563
 30
0.0
 10
-38.08906935286461
 20
-171.4853563995297
 30
0.0
 10
-33.62425109847127
 20
-172.8423497593005
 30
0.0
 10
-28.47129190060462
 20
-174.3328301527788
 30
0.0
 10
-23.07625441249111
 20
-175.8065543199522
 30
0.0
 10
-17.89413521023032
 20
-177.1417664714554
 30
0.0
 10
-12.3333043063477
 20
-178.4956793859036
 30
0.0
 10
-6.579296103903884
 20
-179.8035617889557
 30
0.0
 10
-0.8379226945226248
 20
-181.009359629163
 30
0.0
 10
3.565272480303263
 20
-181.8706396377755
 30
0.0
 10
7.108894846936844
 20
-182.5277019454953
 30
0.0
 10
10.39474223790793
 20
-183.110740418455
 30
0.0
 10
14.40271457546398
 20
-183.7828398164918
 30
0.0
 10
19.20589120360801
 20
-184.5306195971315
 30
0.0
 10
24.46733657962319
 20
-185.2754624029705
 30
0.0
 10
29.76850128343286
 20
-185.9470936580641
 30
0.0
 10
34.74376963325497
 20
-186.5071830071725
 30
0.0
 10
39.52026025353228
 20
-186.9819261961716
 30
0.0
 10
43.93799285416355
 20
-187.3644691412333
 30
0.0
 10
47.84515001725799
 20
-187.6565587275489
 30
0.0
 10
51.27772120430886
 20
-187.8805276767004
 30
0.0
 10
54.72872148641264
 20
-188.0758436929588
 30
0.0
 10
58.71603906773638
 20
-188.261750444283
 30
0.0
 10
63.38100348508797
 20
-188.4242010332645
 30
0.0
 10
68.72077384593219
 20
-188.5373298061858
 30
0.0
 10
74.6491310324611
 20
-188.5702060406045
 30
0.0
 10
80.85946953307838
 20
-188.4972258853903
 30
0.0
 10
86.80461198238396
 20
-188.3230071256545
 30
0.0
 10
92.18067103220905
 20
-188.0775117228221
 30
0.0
 10
96.93227919714595
 20
-187.7920833867235
 30
0.0
 10
101.2369768618841
 20
-187.4777713021855
 30
0.0
 10
105.2246677458491
 20
-187.1376482870758
 30
0.0
 10
109.1290291461737
 20
-186.7598645089997
 30
0.0
 10
113.7027490181888
 20
-186.2645520701756
 30
0.0
 10
118.9670885449313
 20
-185.6133115432221
 30
0.0
 10
125.1493551981018
 20
-184.7359528573988
 30
0.0
 10
131.1258692166283
 20
-183.7694970709413
 30
0.0
 10
137.1939274040204
 20
-182.6680370589741
 30
0.0
 10
143.0312963624908
 20
-181.4988506586469
 30
0.0
 10
149.001013714292
 20
-180.180801234253
 30
0.0
 10
154.5256193607379
 20
-178.8468802857545
 30
0.0
 10
159.6860735178108
 20
-177.5056611236692
 30
0.0
 10
164.1407515476274
 20
-176.2683726765341
 30
0.0
 10
168.1989151885764
 20
-175.0771271452157
 30
0.0
 10
172.1220756003184
 20
-173.8708849339303
 30
0.0
 10
176.268222306216
 20
-172.5316589378778
 30
0.0
 10
180.8997116303973
 20
-170.9567651586311
 30
0.0
 10
186.081971081514
 20
-169.0880373216214
 30
0.0
 10
190.9737695070785
 20
-167.2158289919074
 30
0.0
 10
195.6600302123423
 20
-165.3254317968645
 30
0.0
 10
200.2694461665436
 20
-163.3720462538794
 30
0.0
 10
205.1678179109005
 20
-161.190841407481
 30
0.0
 10
210.4606911627326
 20
-158.7015109936132
 30
0.0
 10
215.7219654806603
 20
-156.0796809792344
 30
0.0
 10
220.508595348794
 20
-153.5621551832968
 30
0.0
 10
224.3128699321128
 20
-151.4674426417164
 30
0.0
 10
227.4233277393164
 20
-149.6944366438075
 30
0.0
 10
230.3369995408636
 20
-147.987080526659
 30
0.0
 10
233.6916206966806
 20
-145.958075146624
 30
0.0
 10
237.2870183359053
 20
-143.6985731782927
 30
0.0
 10
240.370176598009
 20
-141.685091300819
 30
0.0
 10
242.7100220331185
 20
-140.1140198296762
 30
0.0
 10
244.4412986894342
 20
-138.9291278728893
 30
0.0
 10
246.1556295183357
 20
-137.7354720353306
 30
0.0
 10
248.2124676555333
 20
-136.2765200246531
 30
0.0
 10
250.9665039643341
 20
-134.2795743115328
 30
0.0
 10
253.0801509951683
 20
-132.6767256973276
 30
0.0
 10
254.2879551312965
 20
-131.7608077802948
 30
0.0
  0
SPLINE
  5
74
330
1F
100
AcDbEntity
  8
0
  6
Continuous
 62
     7
370
    25
100
AcDbSpline
210
0.0
220
0.0
230
1.0
 70
    11
 71
     3
 72
    35
 73
    31
 74
     0
 42
0.000000001
 43
0.00000001
 40
0.0
 40
0.0
 40
0.0
 40
0.0
 40
0.0062500000000001
 40
0.0083333333333333
 40
0.0416666666666666
 40
0.0833333333333334
 40
0.125
 40
0.1666666666666666
 40
0.2083333333333334
 40
0.2499999999996538
 40
0.2916666666666666
 40
0.3333333333333334
 40
0.375
 40
0.4166666666666666
 40
0.4583333333333334
 40
0.4999999999999999
 40
0.5416666666666667
 40
0.5833333333333333
 40
0.625
 40
0.6666666666666667
 40
0.7083333333333333
 40
0.7499999999996151
 40
0.7916666666666666
 40
0.8333333333333334
 40
0.875
 40
0.9166666666666666
 40
0.9583333333333334
 40
0.9916666666666667
 40
0.99375
 40
1.0
 40
1.0
 40
1.0
 40
1.0
 10
242.1840725563923
 20
-139.8098891496391
 30
0.0
 10
240.2068051722569
 20
-140.951341314008
 30
0.0
 10
237.4851601392758
 20
-142.4240415181262
 30
0.0
 10
223.3317710723263
 20
-149.4537873175277
 30
0.0
 10
192.9230463804738
 20
-159.8202124070649
 30
0.0
 10
136.5061668894526
 20
-166.3117460252486
 30
0.0
 10
65.76302208116932
 20
-162.0778648397963
 30
0.0
 10
-9.55825521413134
 20
-146.560835237995
 30
0.0
 10
-82.99464628975875
 20
-121.5018819512722
 30
0.0
 10
-152.0240655199167
 20
-87.76162496593516
 30
0.0
 10
-210.4702376434233
 20
-47.91178947196345
 30
0.0
 10
-253.8783212767873
 20
-5.517863284095231
 30
0.0
 10
-280.7575173465313
 20
37.96418455706962
 30
0.0
 10
-288.0916093370861
 20
78.80333276917985
 30
0.0
 10
-276.0435188523876
 20
113.6984448595842
 30
0.0
 10
-245.0270232497474
 20
141.4510896509782
 30
0.0
 10
-196.952823486975
 20
159.3565314343375
 30
0.0
 10
-136.5061668894523
 20
166.3117460252486
 30
0.0
 10
-65.76302208116898
 20
162.0778648397963
 30
0.0
 10
9.558255214131645
 20
146.5608352379948
 30
0.0
 10
82.99464628975902
 20
121.5018819512721
 30
0.0
 10
152.024065519917
 20
87.76162496593511
 30
0.0
 10
210.4702376434235
 20
47.91178947196335
 30
0.0
 10
253.8783212767874
 20
5.517863284095176
 30
0.0
 10
280.7575173465315
 20
-37.96418455706974
 30
0.0
 10
288.0916093370861
 20
-78.80333276917983
 30
0.0
 10
276.846724884701
 20
-111.3721040535573
 30
0.0
 10
258.8896042453459
 20
-128.9266871583559
 30
0.0
 10
246.7124079319073
 20
-137.0972647510717
 30
0.0
 10
244.1613399405275
 20
-138.6684369852703
 30
0.0
 10
242.1840725563923
 20
-139.8098891496391
 30
0.0
  0
SPLINE
  5
75
330
1F
100
AcDbEntity
  8
0
  6
Continuous
 62
     7
370
    25
100
AcDbSpline
210
0.0
220
0.0
230
1.0
 70
    11
 71
     3
 72
    35
 73
    31
 74
     0
 42
0.000000001
 43
0.00000001
 40
0.0
 40
0.0
 40
0.0
 40
0.0
 40
0.0062500000000001
 40
0.0083333333333333
 40
0.0416666666666666
 40
0.0833333333333334
 40
0.125
 40
0.1666666666666666
 40
0.2083333333333334
 40
0.2499999999996538
 40
0.2916666666666666
 40
0.3333333333333334
 40
0.375
 40
0.4166666666666666
 40
0.4583333333333334
 40
0.4999999999999999
 40
0.5416666666666667
 40
0.5833333333333333
 40
0.625
 40
0.6666666666666667
 40
0.7083333333333333
 40
0.7499999999996151
 40
0.7916666666666666
 40
0.8333333333333334
 40
0.875
 40
0.9166666666666666
 40
0.9583333333333334
 40
0.9916666666666667
 40
0.99375
 40
1.0
 40
1.0
 40
1.0
 40
1.0
 10
221.0640468294941
 20
-127.6175578185703
 30
0.0
 10
219.2838369356501
 20
-128.6452511152196
 30
0.0
 10
216.8324229679658
 20
-129.970595412172
 30
0.0
 10
204.0779625325476
 20
-136.2929029885071
 30
0.0
 10
176.6272517472939
 20
-145.582636994538
 30
0.0
 10
125.5849483722791
 20
-151.2588255153999
 30
0.0
 10
61.47292301596823
 20
-147.1483163743668
 30
0.0
 10
-6.903339274532502
 20
-132.7783132657927
 30
0.0
 10
-73.706092003854
 20
-109.7527890903437
 30
0.0
 10
-136.6490074342843
 20
-78.88579286050063
 30
0.0
 10
-190.1180066588309
 20
-42.54962121967283
 30
0.0
 10
-230.0037061002175
 20
-3.985212935548738
 30
0.0
 10
-254.8959787187711
 20
35.48756308309617
 30
0.0
 10
-262.0163609042568
 20
72.49864751821235
 30
0.0
 10
-251.4815263135551
 20
104.0694630913618
 30
0.0
 10
-223.6574060259035
 20
129.1146722156816
 30
0.0
 10
-180.2731305597948
 20
145.1771949573337
 30
0.0
 10
-125.5849483722791
 20
151.2588255154
 30
0.0
 10
-61.47292301596831
 20
147.1483163743668
 30
0.0
 10
6.903339274532295
 20
132.7783132657927
 30
0.0
 10
73.70609200385397
 20
109.7527890903437
 30
0.0
 10
136.6490074342842
 20
78.8857928605007
 30
0.0
 10
190.1180066588307
 20
42.54962121967283
 30
0.0
 10
230.0037061002173
 20
3.98521293554889
 30
0.0
 10
254.8959787187711
 20
-35.48756308309611
 30
0.0
 10
262.0163609042568
 20
-72.49864751821222
 30
0.0
 10
252.1838486196021
 20
-101.9647420531519
 30
0.0
 10
236.0918137268621
 20
-117.8117000774935
 30
0.0
 10
225.1400691392379
 20
-125.1746933611419
 30
0.0
 10
222.8442567233381
 20
-126.589864521921
 30
0.0
 10
221.0640468294941
 20
-127.6175578185703
 30
0.0
  0
SPLINE
  5
76
330
1F
100
AcDbEntity
  8
0
  6
Continuous
 62
     7
370
    25
100
AcDbSpline
210
0.0
220
0.0
230
1.0
 70
    11
 71
     3
 72
    35
 73
    31
 74
     0
 42
0.000000001
 43
0.00000001
 40
0.0
 40
0.0
 40
0.0
 40
0.0
 40
0.0062500000000001
 40
0.0083333333333333
 40
0.0416666666666666
 40
0.0833333333333334
 40
0.125
 40
0.1666666666666666
 40
0.2083333333333334
 40
0.2499999999996538
 40
0.2916666666666666
 40
0.3333333333333334
 40
0.375
 40
0.4166666666666666
 40
0.4583333333333334
 40
0.4999999999999999
 40
0.5416666666666667
 40
0.5833333333333333
 40
0.625
 40
0.6666666666666667
 40
0.7083333333333333
 40
0.7499999999996151
 40
0.7916666666666666
 40
0.8333333333333334
 40
0.875
 40
0.9166666666666666
 40
0.9583333333333334
 40
0.9916666666666667
 40
0.99375
 40
1.0
 40
1.0
 40
1.0
 40
1.0
 10
23.33452377915599
 20
-111.4556312713647
 30
0.0
 10
23.02420512370814
 20
-111.6347744179856
 30
0.0
 10
22.60165605361344
 20
-111.8685570897227
 30
0.0
 10
20.43393413010213
 20
-113.0029656319545
 30
0.0
 10
16.00090673983249
 20
-114.8285649734352
 30
0.0
 10
8.424297023536479
 20
-116.6260890334017
 30
0.0
 10
-0.0000000000001318
 20
-117.2680619119612
 30
0.0
 10
-8.42429702353673
 20
-116.6260890334017
 30
0.0
 10
-16.54209314813957
 20
-114.7001703977232
 30
0.0
 10
-23.627552540186
 20
-111.6247931743948
 30
0.0
 10
-28.95483936605337
 20
-107.5344445328852
 30
0.0
 10
-32.29098977313674
 20
-102.8481405809363
 30
0.0
 10
-33.40303990883117
 20
-97.98489742628983
 30
0.0
 10
-32.29098977313666
 20
-93.12165427164335
 30
0.0
 10
-28.95483936605322
 20
-88.4353503196945
 30
0.0
 10
-23.62755254018578
 20
-84.34500167818501
 30
0.0
 10
-16.54209314813931
 20
-81.2696244548566
 30
0.0
 10
-8.424297023536443
 20
-79.34370581917815
 30
0.0
 10
0.0000000000001631
 20
-78.7017329406187
 30
0.0
 10
8.424297023536756
 20
-79.34370581917818
 30
0.0
 10
16.5420931481396
 20
-81.26962445485665
 30
0.0
 10
23.62755254018603
 20
-84.34500167818516
 30
0.0
 10
28.9548393660534
 20
-88.43535031969465
 30
0.0
 10
32.29098977313677
 20
-93.12165427164352
 30
0.0
 10
33.4030399088312
 20
-97.98489742629
 30
0.0
 10
32.2909897731367
 20
-102.8481405809365
 30
0.0
 10
29.17724939319215
 20
-107.2220242694221
 30
0.0
 10
26.01487592973223
 20
-109.7811565091634
 30
0.0
 10
24.04980977903673
 20
-111.0325557388249
 30
0.0
 10
23.64484243460383
 20
-111.2764881247437
 30
0.0
 10
23.33452377915599
 20
-111.4556312713647
 30
0.0
  0
SPLINE
  5
77
330
1F
100
AcDbEntity
  8
0
  6
Continuous
 62
     7
370
    25
100
AcDbSpline
210
0.0
220
0.0
230
1.0
 70
     8
 71
     3
 72
    29
 73
    25
 74
     0
 42
0.000000001
 43
0.00000001
 40
0.0
 40
0.0
 40
0.0
 40
0.0
 40
0.0438229901005701
 40
0.0893387940368415
 40
0.1340830480589766
 40
0.1788273020811233
 40
0.2243431060174678
 40
0.2705841772090256
 40
0.3170415240295016
 40
0.3634988708499776
 40
0.4097399420415353
 40
0.4552557459778799
 40
0.5000000000000265
 40
0.5447442540221861
 40
0.5902600579586121
 40
0.6365011291502516
 40
0.6829584759707428
 40
0.7294158227912033
 40
0.7756568939826793
 40
0.8211726979189424
 40
0.8659169519410763
 40
0.910661205963223
 40
0.9561770098995676
 40
1.0
 40
1.0
 40
1.0
 40
1.0
 10
-19.26304294211239
 20
-113.3660823580856
 30
0.0
 10
-19.98766771211037
 20
-112.6450610278804
 30
0.0
 10
-21.46490837807762
 20
-111.1751664367639
 30
0.0
 10
-22.71594543943339
 20
-108.7115071405263
 30
0.0
 10
-23.17230302545624
 20
-106.1512426197193
 30
0.0
 10
-22.72498708931543
 20
-103.5853233344879
 30
0.0
 10
-21.40520617216991
 20
-101.0945834610998
 30
0.0
 10
-19.27194159743846
 20
-98.76279390953889
 30
0.0
 10
-16.3782419103581
 20
-96.69536102534276
 30
0.0
 10
-12.79689530442466
 20
-95.02481869764826
 30
0.0
 10
-8.757839101111516
 20
-93.79345556439692
 30
0.0
 10
-4.442717628354319
 20
-93.03104124785794
 30
0.0
 10
0.000000000000569
 20
-92.77471600246186
 30
0.0
 10
4.442717628358154
 20
-93.03104124785831
 30
0.0
 10
8.757839101120458
 20
-93.79345556439918
 30
0.0
 10
12.79689530443881
 20
-95.02481869765214
 30
0.0
 10
16.37824191037113
 20
-96.69536102535027
 30
0.0
 10
19.27194159744533
 20
-98.76279390954706
 30
0.0
 10
21.40520617217371
 20
-101.0945834611049
 30
0.0
 10
22.72498708931615
 20
-103.5853233344901
 30
0.0
 10
23.17230302545633
 20
-106.15124261972
 30
0.0
 10
22.71594543943264
 20
-108.7115071405282
 30
0.0
 10
21.46490837807692
 20
-111.175166436765
 30
0.0
 10
19.98766771211021
 20
-112.6450610278801
 30
0.0
 10
19.26304294211427
 20
-113.366082358083
 30
0.0
  0
SPLINE
  5
78
330
1F
100
AcDbEntity
  8
0
  6
Continuous
 62
     7
370
    25
100
AcDbSpline
210
0.0
220
0.0
230
1.0
 70
     8
 71
     3
 72
    19
 73
    15
 74
     0
 42
0.000000001
 43
0.00000001
 40
0.0
 40
0.0
 40
0.0
 40
0.0
 40
0.04757017031155
 40
0.1391884782994581
 40
0.2308067862873661
 40
0.3219985781580907
 40
0.4117600739979543
 40
0.5000000000000012
 40
0.5882399260020734
 40
0.6780014218420978
 40
0.7691932137129838
 40
0.8608115217009221
 40
0.9524298296887999
 40
1.0
 40
1.0
 40
1.0
 40
1.0
 10
-20.26296025303916
 20
-112.2743616342905
 30
0.0
 10
-19.91196802691067
 20
-111.8632034308954
 30
0.0
 10
-18.88497834977045
 20
-110.6601704315157
 30
0.0
 10
-16.35368779043042
 20
-108.95090944505
 30
0.0
 10
-12.80344194284766
 20
-107.2709468534443
 30
0.0
 10
-8.75612627895724
 20
-106.0420918717688
 30
0.0
 10
-4.44313460267818
 20
-105.2790073918911
 30
0.0
 10
0.0000000000005586
 20
-105.0229005737186
 30
0.0
 10
4.443134602682028
 20
-105.2790073918915
 30
0.0
 10
8.756126278966166
 20
-106.0420918717709
 30
0.0
 10
12.80344194286186
 20
-107.2709468534482
 30
0.0
 10
16.35368779044335
 20
-108.9509094450574
 30
0.0
 10
18.8849783497761
 20
-110.6601704315221
 30
0.0
 10
19.91196802691336
 20
-111.8632034308985
 30
0.0
 10
20.2629602530392
 20
-112.2743616342906
 30
0.0
  0
SPLINE
  5
79
330
1B
100
AcDbEntity
 67
     1
  8
0
  6
Continuous
 62
     7
370
    25
100
AcDbSpline
210
0.0
220
0.0
230
1.0
 70
    11
 71
     3
 72
    35
 73
    31
 74
     0
 42
0.000000001
 43
0.00000001
 40
0.0
 40
0.0
 40
0.0
 40
0.0
 40
0.0062500000000001
 40
0.0083333333333333
 40
0.0416666666666666
 40
0.0833333333333334
 40
0.125
 40
0.1666666666666666
 40
0.2083333333333334
 40
0.2499999999996538
 40
0.2916666666666666
 40
0.3333333333333334
 40
0.375
 40
0.4166666666666666
 40
0.4583333333333334
 40
0.4999999999999999
 40
0.5416666666666667
 40
0.5833333333333333
 40
0.625
 40
0.6666666666666667
 40
0.7083333333333333
 40
0.7499999999996151
 40
0.7916666666666666
 40
0.8333333333333334
 40
0.875
 40
0.9166666666666666
 40
0.9583333333333334
 40
0.9916666666666667
 40
0.99375
 40
1.0
 40
1.0
 40
1.0
 40
1.0
 10
312.631773179352
 20
0.0000000000001444
 30
0.0
 10
312.6317731793521
 20
-2.517596975744907
 30
0.0
 10
312.5217462669221
 20
-5.874392943404913
 30
0.0
 10
311.2470336663949
 20
-22.63721127139708
 30
0.0
 10
303.2152369174988
 20
-53.42658201178815
 30
0.0
 10
274.075514186225
 20
-96.47157696822228
 30
0.0
 10
223.7065957731777
 20
-136.7707543252776
 30
0.0
 10
157.7557822676516
 20
-167.5185782953577
 30
0.0
 10
82.31565426344807
 20
-186.551809204817
 30
0.0
 10
0.0000000000032413
 20
-193.2508795983896
 30
0.0
 10
-82.31565426344167
 20
-186.5518092048152
 30
0.0
 10
-157.7557822676434
 20
-167.5185782953595
 30
0.0
 10
-223.7065957731709
 20
-136.7707543252791
 30
0.0
 10
-274.0755141862206
 20
-96.47157696822333
 30
0.0
 10
-305.296645684016
 20
-50.35193951490042
 30
0.0
 10
-316.2993369270193
 20
0.0000000000000797
 30
0.0
 10
-305.2966456840184
 20
50.35193951490022
 30
0.0
 10
-274.0755141862251
 20
96.47157696822235
 30
0.0
 10
-223.7065957731778
 20
136.7707543252775
 30
0.0
 10
-157.7557822676517
 20
167.5185782953575
 30
0.0
 10
-82.31565426344812
 20
186.551809204817
 30
0.0
 10
-0.0000000000033519
 20
193.2508795983896
 30
0.0
 10
82.31565426344159
 20
186.551809204815
 30
0.0
 10
157.7557822676431
 20
167.5185782953596
 30
0.0
 10
223.7065957731709
 20
136.7707543252791
 30
0.0
 10
274.0755141862205
 20
96.4715769682234
 30
0.0
 10
303.2152369174965
 20
53.4265820117887
 30
0.0
 10
311.2470336663939
 20
22.63721127139737
 30
0.0
 10
312.5217462669219
 20
5.87439294340516
 30
0.0
 10
312.631773179352
 20
2.517596975745151
 30
0.0
 10
312.631773179352
 20
0.0000000000001444
 30
0.0
  0
SPLINE
  5
7A
330
1B
100
AcDbEntity
 67
     1
  8
0
  6
Continuous
 62
     7
370
    25
100
AcDbSpline
210
0.0
220
0.0
230
1.0
 70
    11
 71
     3
 72
    35
 73
    31
 74
     0
 42
0.000000001
 43
0.00000001
 40
0.0
 40
0.0
 40
0.0
 40
0.0
 40
0.0062500000000001
 40
0.0083333333333333
 40
0.0416666666666666
 40
0.0833333333333334
 40
0.125
 40
0.1666666666666666
 40
0.2083333333333334
 40
0.2499999999996538
 40
0.2916666666666666
 40
0.3333333333333334
 40
0.375
 40
0.4166666666666666
 40
0.4583333333333334
 40
0.4999999999999999
 40
0.5416666666666667
 40
0.5833333333333333
 40
0.625
 40
0.6666666666666667
 40
0.7083333333333333
 40
0.7499999999996151
 40
0.7916666666666666
 40
0.8333333333333334
 40
0.875
 40
0.9166666666666666
 40
0.9583333333333334
 40
0.9916666666666667
 40
0.99375
 40
1.0
 40
1.0
 40
1.0
 40
1.0
 10
32.99999999999994
 20
-0.0000000000000027
 30
0.0
 10
32.99999999999994
 20
-0.4388568511917368
 30
0.0
 10
32.98756784255953
 20
-1.023999319447372
 30
0.0
 10
32.84426857135487
 20
-3.946321791925899
 30
0.0
 10
31.94578056316637
 20
-9.317081241428122
 30
0.0
 10
28.79005539188271
 20
-16.87630028773804
 30
0.0
 10
23.61951603177929
 20
-23.61951603177939
 30
0.0
 10
16.87630028773792
 20
-28.79005539188277
 30
0.0
 10
8.777137023834415
 20
-32.17118950397236
 30
0.0
 10
-0.0000000000001448
 20
-33.41440524801371
 30
0.0
 10
-8.777137023834696
 20
-32.17118950397232
 30
0.0
 10
-16.87630028773818
 20
-28.79005539188269
 30
0.0
 10
-23.61951603177953
 20
-23.61951603177926
 30
0.0
 10
-28.79005539188292
 20
-16.87630028773788
 30
0.0
 10
-32.17118950397251
 20
-8.777137023834385
 30
0.0
 10
-33.41440524801385
 20
0.0000000000001795
 30
0.0
 10
-32.17118950397246
 20
8.777137023834722
 30
0.0
 10
-28.79005539188282
 20
16.8763002877382
 30
0.0
 10
-23.6195160317794
 20
23.61951603177954
 30
0.0
 10
-16.87630028773803
 20
28.79005539188292
 30
0.0
 10
-8.77713702383453
 20
32.17118950397253
 30
0.0
 10
0.0000000000000199
 20
33.41440524801388
 30
0.0
 10
8.777137023834577
 20
32.17118950397249
 30
0.0
 10
16.87630028773806
 20
28.79005539188285
 30
0.0
 10
23.6195160317794
 20
23.61951603177943
 30
0.0
 10
28.79005539188279
 20
16.87630028773806
 30
0.0
 10
31.94578056316642
 20
9.317081241428118
 30
0.0
 10
32.84426857135487
 20
3.946321791925886
 30
0.0
 10
32.98756784255953
 20
1.023999319447359
 30
0.0
 10
32.99999999999994
 20
0.4388568511917236
 30
0.0
 10
32.99999999999994
 20
-0.0000000000000027
 30
0.0
  0
SPLINE
  5
7B
330
1B
100
AcDbEntity
 67
     1
  8
0
  6
Continuous
 62
     7
370
    25
100
AcDbSpline
210
0.0
220
0.0
230
1.0
 70
    11
 71
     3
 72
    35
 73
    31
 74
     0
 42
0.000000001
 43
0.00000001
 40
0.0
 40
0.0
 40
0.0
 40
0.0
 40
0.0062500000000001
 40
0.0083333333333333
 40
0.0416666666666666
 40
0.0833333333333334
 40
0.125
 40
0.1666666666666666
 40
0.2083333333333334
 40
0.2499999999996538
 40
0.2916666666666666
 40
0.3333333333333334
 40
0.375
 40
0.4166666666666666
 40
0.4583333333333334
 40
0.4999999999999999
 40
0.5416666666666667
 40
0.5833333333333333
 40
0.625
 40
0.6666666666666667
 40
0.7083333333333333
 40
0.7499999999996151
 40
0.7916666666666666
 40
0.8333333333333334
 40
0.875
 40
0.9166666666666666
 40
0.9583333333333334
 40
0.9916666666666667
 40
0.99375
 40
1.0
 40
1.0
 40
1.0
 40
1.0
 10
342.5000000000001
 20
0.0000000000001505
 30
0.0
 10
342.5000000000001
 20
-2.79627835108201
 30
0.0
 10
342.379383817169
 20
-6.524649485858157
 30
0.0
 10
340.9820045202297
 20
-25.14318496094193
 30
0.0
 10
332.1773908580587
 20
-59.34300217245835
 30
0.0
 10
300.2359668465141
 20
-107.1870942838844
 30
0.0
 10
245.0270232497481
 20
-152.0240655199164
 30
0.0
 10
172.7603754928497
 20
-186.2777896492969
 30
0.0
 10
90.13885508194167
 20
-207.5110094692758
 30
0.0
 10
0.0000000000001483
 20
-214.994495265362
 30
0.0
 10
-90.13885508194133
 20
-207.511009469276
 30
0.0
 10
-172.7603754928494
 20
-186.2777896492971
 30
0.0
 10
-245.0270232497477
 20
-152.0240655199166
 30
0.0
 10
-300.2359668465142
 20
-107.1870942838847
 30
0.0
 10
-334.4589211445978
 20
-55.92556702164246
 30
0.0
 10
-346.5205394277012
 20
0.0000000000000301
 30
0.0
 10
-334.4589211445976
 20
55.92556702164251
 30
0.0
 10
-300.235966846514
 20
107.1870942838847
 30
0.0
 10
-245.0270232497478
 20
152.0240655199166
 30
0.0
 10
-172.7603754928494
 20
186.2777896492971
 30
0.0
 10
-90.1388550819414
 20
207.511009469276
 30
0.0
 10
0.000000000000098
 20
214.9944952653622
 30
0.0
 10
90.1388550819416
 20
207.511009469276
 30
0.0
 10
172.7603754928496
 20
186.2777896492971
 30
0.0
 10
245.027023249748
 20
152.0240655199165
 30
0.0
 10
300.2359668465142
 20
107.1870942838848
 30
0.0
 10
332.177390858059
 20
59.34300217245866
 30
0.0
 10
340.9820045202297
 20
25.14318496094219
 30
0.0
 10
342.379383817169
 20
6.524649485858409
 30
0.0
 10
342.5000000000001
 20
2.796278351082261
 30
0.0
 10
342.5000000000001
 20
0.0000000000001505
 30
0.0
  0
SPLINE
  5
7C
330
1B
100
AcDbEntity
 67
     1
  8
0
  6
Continuous
 62
     7
370
    25
100
AcDbSpline
210
0.0
220
0.0
230
1.0
 70
    11
 71
     3
 72
    35
 73
    31
 74
     0
 42
0.000000001
 43
0.00000001
 40
0.0
 40
0.0
 40
0.0
 40
0.0
 40
0.0062500000000001
 40
0.0083333333333333
 40
0.0416666666666666
 40
0.0833333333333334
 40
0.125
 40
0.1666666666666666
 40
0.2083333333333334
 40
0.2499999999996538
 40
0.2916666666666666
 40
0.3333333333333334
 40
0.375
 40
0.4166666666666666
 40
0.4583333333333334
 40
0.4999999999999999
 40
0.5416666666666667
 40
0.5833333333333333
 40
0.625
 40
0.6666666666666667
 40
0.7083333333333333
 40
0.7499999999996151
 40
0.7916666666666666
 40
0.8333333333333334
 40
0.875
 40
0.9166666666666666
 40
0.9583333333333334
 40
0.9916666666666667
 40
0.99375
 40
1.0
 40
1.0
 40
1.0
 40
1.0
 10
22.99999999999994
 20
-0.0000000000000022
 30
0.0
 10
22.99999999999994
 20
-0.3058699265881806
 30
0.0
 10
22.99133516299601
 20
-0.713696495372411
 30
0.0
 10
22.89145991336851
 20
-2.750466703463506
 30
0.0
 10
22.26524099857048
 20
-6.493723289480204
 30
0.0
 10
20.06579618222126
 20
-11.76226989751439
 30
0.0
 10
16.46208693124008
 20
-16.46208693124017
 30
0.0
 10
11.76226989751427
 20
-20.06579618222131
 30
0.0
 10
6.117398531763338
 20
-22.4223441997383
 30
0.0
 10
-0.0000000000001435
 20
-23.28882790013073
 30
0.0
 10
-6.117398531763618
 20
-22.42234419973825
 30
0.0
 10
-11.76226989751453
 20
-20.06579618222122
 30
0.0
 10
-16.46208693124031
 20
-16.46208693124005
 30
0.0
 10
-20.06579618222145
 20
-11.76226989751424
 30
0.0
 10
-22.42234419973844
 20
-6.117398531763309
 30
0.0
 10
-23.28882790013088
 20
0.0000000000001789
 30
0.0
 10
-22.42234419973839
 20
6.117398531763646
 30
0.0
 10
-20.06579618222136
 20
11.76226989751455
 30
0.0
 10
-16.46208693124019
 20
16.46208693124034
 30
0.0
 10
-11.76226989751438
 20
20.06579618222148
 30
0.0
 10
-6.117398531763454
 20
22.42234419973846
 30
0.0
 10
0.0000000000000208
 20
23.2888279001309
 30
0.0
 10
6.1173985317635
 20
22.42234419973842
 30
0.0
 10
11.76226989751441
 20
20.06579618222139
 30
0.0
 10
16.4620869312402
 20
16.46208693124022
 30
0.0
 10
20.06579618222134
 20
11.76226989751441
 30
0.0
 10
22.26524099857052
 20
6.493723289480205
 30
0.0
 10
22.89145991336856
 20
2.750466703463496
 30
0.0
 10
22.99133516299603
 20
0.7136964953724011
 30
0.0
 10
22.99999999999994
 20
0.3058699265881706
 30
0.0
 10
22.99999999999994
 20
-0.0000000000000022
 30
0.0
  0
VIEWPORT
  5
E5
330
1B
100
AcDbEntity
 67
     1
  8
0
100
AcDbViewport
 10
0.0
 20
0.0
 30
0.0
 40
205.6
 41
156.0
 68
     1
 69
     1
 12
0.0
 22
-12.0574373589
 13
0.0
 23
0.0
 14
10.0
 24
10.0
 15
10.0
 25
10.0
 16
0.0
 26
0.0
 36
1.0
 17
0.0
 27
0.0
 37
0.0
 42
50.0
 43
0.0
 44
0.0
 45
440.8991966491
 50
0.0
 51
0.0
 72
   100
 90
   557152
  1

281
     0
 71
     1
 74
     0
110
0.0
120
0.0
130
0.0
111
1.0
121
0.0
131
0.0
112
0.0
122
1.0
132
0.0
 79
     0
146
0.0
170
     0
 61
     5
348
2F
292
     1
282
     1
141
0.0
142
0.0
 63
   256
361
E6
  0
ENDSEC
  0
SECTION
  2
OBJECTS
  0
DICTIONARY
  5
C
330
0
100
AcDbDictionary
281
     1
  3
ACAD_DETAILVIEWSTYLE
350
101
  3
ACAD_GROUP
350
D
  3
ACAD_LAYOUT
350
1A
  3
ACAD_MATERIAL
350
43
  3
ACAD_MLEADERSTYLE
350
6B
  3
ACAD_MLINESTYLE
350
17
  3
ACAD_PLOTSETTINGS
350
19
  3
ACAD_PLOTSTYLENAME
350
E
  3
ACAD_SCALELIST
350
47
  3
ACAD_SECTIONVIEWSTYLE
350
102
  3
ACAD_TABLESTYLE
350
69
  3
ACAD_VISUALSTYLE
350
2A
  3
ACDB_RECOMPOSE_DATA
350
FE
  3
AcDbVariableDictionary
350
F9
  0
SUN
  5
6D
330
29
100
AcDbSun
 90
        1
290
     0
 63
     7
421
 16777215
 40
1.0
291
     1
 91
  2455826
 92
 54000000
292
     0
 70
     2
 71
   256
280
     1
  0
SUN
  5
E8
330
E7
100
AcDbSun
 90
        1
290
     0
 63
     7
421
 16777215
 40
1.0
291
     1
 91
  2455826
 92
 54000000
292
     0
 70
     2
 71
   256
280
     1
  0
SUN
  5
EA
330
E9
100
AcDbSun
 90
        1
290
     0
 63
     7
421
 16777215
 40
1.0
291
     1
 91
  2455826
 92
 54000000
292
     0
 70
     2
 71
   256
280
     1
  0
SUN
  5
EC
330
EB
100
AcDbSun
 90
        1
290
     0
 63
     7
421
 16777215
 40
1.0
291
     1
 91
  2455826
 92
 54000000
292
     0
 70
     2
 71
   256
280
     1
  0
SUN
  5
EE
330
ED
100
AcDbSun
 90
        1
290
     0
 63
     7
421
 16777215
 40
1.0
291
     1
 91
  2455826
 92
 54000000
292
     0
 70
     2
 71
   256
280
     1
  0
SUN
  5
F0
330
EF
100
AcDbSun
 90
        1
290
     0
 63
     7
421
 16777215
 40
1.0
291
     1
 91
  2455826
 92
 54000000
292
     0
 70
     2
 71
   256
280
     1
  0
SUN
  5
F2
330
F1
100
AcDbSun
 90
        1
290
     0
 63
     7
421
 16777215
 40
1.0
291
     1
 91
  2455826
 92
 54000000
292
     0
 70
     2
 71
   256
280
     1
  0
SUN
  5
F4
330
F3
100
AcDbSun
 90
        1
290
     0
 63
     7
421
 16777215
 40
1.0
291
     1
 91
  2455826
 92
 54000000
292
     0
 70
     2
 71
   256
280
     1
  0
SUN
  5
F6
330
F5
100
AcDbSun
 90
        1
290
     0
 63
     7
421
 16777215
 40
1.0
291
     1
 91
  2455826
 92
 54000000
292
     0
 70
     2
 71
   256
280
     1
  0
SUN
  5
F8
330
F7
100
AcDbSun
 90
        1
290
     0
 63
     7
421
 16777215
 40
1.0
291
     1
 91
  2455826
 92
 54000000
292
     0
 70
     2
 71
   256
280
     1
  0
SUN
  5
E6
330
E5
100
AcDbSun
 90
        1
290
     0
 63
     7
421
 16777215
 40
1.0
291
     1
 91
  2455826
 92
 54000000
292
     0
 70
     2
 71
   256
280
     1
  0
DICTIONARY
  5
101
102
{ACAD_REACTORS
330
C
102
}
330
C
100
AcDbDictionary
281
     1
  0
DICTIONARY
  5
D
102
{ACAD_REACTORS
330
C
102
}
330
C
100
AcDbDictionary
281
     1
  0
DICTIONARY
  5
1A
102
{ACAD_REACTORS
330
C
102
}
330
C
100
AcDbDictionary
281
     1
  3
_Dimetrisch
350
DF
  3
_Isometrisch
350
CC
  3
_Links
350
87
  3
_Normal auf
350
94
  3
_Oben
350
1E
  3
_Rechts
350
B1
  3
_Rückseite
350
A1
  3
_Trimetrisch
350
D6
  3
_Unten
350
C4
  3
_Vorderseite
350
26
  3
Model
350
22
  0
DICTIONARY
  5
43
102
{ACAD_REACTORS
330
C
102
}
330
C
100
AcDbDictionary
281
     1
  3
ByBlock
350
45
  3
ByLayer
350
44
  3
Global
350
46
  0
DICTIONARY
  5
6B
102
{ACAD_REACTORS
330
C
102
}
330
C
100
AcDbDictionary
281
     1
  3
Standard
350
6C
  0
DICTIONARY
  5
17
102
{ACAD_REACTORS
330
C
102
}
330
C
100
AcDbDictionary
281
     1
  3
Standard
350
18
  0
DICTIONARY
  5
19
102
{ACAD_REACTORS
330
C
102
}
330
C
100
AcDbDictionary
281
     1
  0
ACDBDICTIONARYWDFLT
  5
E
102
{ACAD_REACTORS
330
C
102
}
330
C
100
AcDbDictionary
281
     1
  3
Normal
350
F
100
AcDbDictionaryWithDefault
340
F
  0
DICTIONARY
  5
47
102
{ACAD_REACTORS
330
C
102
}
330
C
100
AcDbDictionary
281
     1
  3
A0
350
48
  3
A1
350
49
  3
A2
350
4A
  3
A3
350
4B
  3
A4
350
4C
  3
A5
350
4D
  3
A6
350
4E
  3
A7
350
4F
  3
A8
350
50
  3
A9
350
51
  3
B0
350
52
  3
B1
350
53
  3
B2
350
54
  3
B3
350
55
  3
B4
350
56
  3
B5
350
57
  3
B6
350
58
  3
B7
350
59
  3
B8
350
5A
  3
B9
350
5B
  3
C0
350
5C
  3
C1
350
5D
  3
C2
350
5E
  3
C3
350
5F
  3
C4
350
60
  3
C5
350
61
  3
C6
350
62
  3
C7
350
63
  3
C8
350
64
  3
C9
350
65
  3
D0
350
66
  3
D1
350
67
  3
D2
350
68
  0
DICTIONARY
  5
102
102
{ACAD_REACTORS
330
C
102
}
330
C
100
AcDbDictionary
281
     1
  0
DICTIONARY
  5
69
102
{ACAD_REACTORS
330
C
102
}
330
C
100
AcDbDictionary
281
     1
  3
Standard
350
6A
  0
DICTIONARY
  5
2A
102
{ACAD_REACTORS
330
C
102
}
330
C
100
AcDbDictionary
281
     1
  3
2dWireframe
350
2F
  3
Basic
350
32
  3
Brighten
350
36
  3
ColorChange
350
3A
  3
Conceptual
350
34
  3
Dim
350
35
  3
EdgeColorOff
350
3D
  3
Facepattern
350
39
  3
Flat
350
2B
  3
FlatWithEdges
350
2C
  3
Gouraud
350
2D
  3
GouraudWithEdges
350
2E
  3
Hidden
350
31
  3
JitterOff
350
3B
  3
Linepattern
350
38
  3
OverhangOff
350
3C
  3
Realistic
350
33
  3
Shaded
350
42
  3
Shaded with edges
350
41
  3
Shades of Gray
350
3E
  3
Sketchy
350
3F
  3
Thicken
350
37
  3
Wireframe
350
30
  3
X-Ray
350
40
  0
XRECORD
  5
FE
102
{ACAD_REACTORS
330
C
102
}
330
C
100
AcDbXrecord
280
     1
 90
        1
330
6A
  0
DICTIONARY
  5
F9
102
{ACAD_REACTORS
330
C
102
}
330
C
100
AcDbDictionary
281
     1
  3
CANNOSCALE
350
FA
  3
CMLEADERSTYLE
350
100
  3
CTABLESTYLE
350
FF
  0
LAYOUT
  5
DF
102
{ACAD_REACTORS
330
1A
102
}
330
1A
100
AcDbPlotSettings
  1

  2
none_device
  4
ISO_A4_(210.00_x_297.00_MM)
  6

 40
7.5
 41
20.0
 42
7.5
 43
20.0
 44
210.0
 45
297.0
 46
0.0
 47
0.0
 48
0.0
 49
0.0
140
0.0
141
0.0
142
1.0
143
2.6653696498
 70
   688
 72
     1
 73
     1
 74
     1
  7

 75
     0
 76
     0
 77
     2
 78
   300
147
0.3751824818
148
342.5
149
212.5
100
AcDbLayout
  1
_Dimetrisch
 70
     1
 71
    10
 10
0.0
 20
0.0
 11
0.0
 21
0.0
 12
0.0
 22
0.0
 32
0.0
 14
0.0
 24
0.0
 34
0.0
 15
0.0
 25
0.0
 35
0.0
146
0.0
 13
0.0
 23
0.0
 33
0.0
 16
1.0
 26
0.0
 36
0.0
 17
0.0
 27
1.0
 37
0.0
 76
     0
330
DE
331
F7
  0
LAYOUT
  5
CC
102
{ACAD_REACTORS
330
1A
102
}
330
1A
100
AcDbPlotSettings
  1

  2
none_device
  4
ISO_A4_(210.00_x_297.00_MM)
  6

 40
7.5
 41
20.0
 42
7.5
 43
20.0
 44
210.0
 45
297.0
 46
0.0
 47
0.0
 48
0.0
 49
0.0
140
0.0
141
0.0
142
1.0
143
2.6653696498
 70
   688
 72
     1
 73
     1
 74
     1
  7

 75
     0
 76
     0
 77
     2
 78
   300
147
0.3751824818
148
342.5
149
212.5
100
AcDbLayout
  1
_Isometrisch
 70
     1
 71
     8
 10
0.0
 20
0.0
 11
0.0
 21
0.0
 12
0.0
 22
0.0
 32
0.0
 14
0.0
 24
0.0
 34
0.0
 15
0.0
 25
0.0
 35
0.0
146
0.0
 13
0.0
 23
0.0
 33
0.0
 16
1.0
 26
0.0
 36
0.0
 17
0.0
 27
1.0
 37
0.0
 76
     0
330
CB
331
F3
  0
LAYOUT
  5
87
102
{ACAD_REACTORS
330
1A
102
}
330
1A
100
AcDbPlotSettings
  1

  2
none_device
  4
ISO_A4_(210.00_x_297.00_MM)
  6

 40
7.5
 41
20.0
 42
7.5
 43
20.0
 44
210.0
 45
297.0
 46
0.0
 47
0.0
 48
0.0
 49
0.0
140
0.0
141
0.0
142
1.0
143
2.6653696498
 70
   688
 72
     1
 73
     1
 74
     1
  7

 75
     0
 76
     0
 77
     2
 78
   300
147
0.3751824818
148
342.5
149
212.5
100
AcDbLayout
  1
_Links
 70
     1
 71
     3
 10
0.0
 20
0.0
 11
0.0
 21
0.0
 12
0.0
 22
0.0
 32
0.0
 14
0.0
 24
0.0
 34
0.0
 15
0.0
 25
0.0
 35
0.0
146
0.0
 13
0.0
 23
0.0
 33
0.0
 16
1.0
 26
0.0
 36
0.0
 17
0.0
 27
1.0
 37
0.0
 76
     0
330
86
331
E9
  0
LAYOUT
  5
94
102
{ACAD_REACTORS
330
1A
102
}
330
1A
100
AcDbPlotSettings
  1

  2
none_device
  4
ISO_A4_(210.00_x_297.00_MM)
  6

 40
7.5
 41
20.0
 42
7.5
 43
20.0
 44
210.0
 45
297.0
 46
0.0
 47
0.0
 48
0.0
 49
0.0
140
0.0
141
0.0
142
1.0
143
2.6653696498
 70
   688
 72
     1
 73
     1
 74
     1
  7

 75
     0
 76
     0
 77
     2
 78
   300
147
0.3751824818
148
342.5
149
212.5
100
AcDbLayout
  1
_Normal auf
 70
     1
 71
     4
 10
0.0
 20
0.0
 11
0.0
 21
0.0
 12
0.0
 22
0.0
 32
0.0
 14
0.0
 24
0.0
 34
0.0
 15
0.0
 25
0.0
 35
0.0
146
0.0
 13
0.0
 23
0.0
 33
0.0
 16
1.0
 26
0.0
 36
0.0
 17
0.0
 27
1.0
 37
0.0
 76
     0
330
93
331
EB
  0
LAYOUT
  5
1E
102
{ACAD_REACTORS
330
1A
102
}
330
1A
100
AcDbPlotSettings
  1

  2
none_device
  4
ISO_A4_(210.00_x_297.00_MM)
  6

 40
7.5
 41
20.0
 42
7.5
 43
20.0
 44
210.0
 45
297.0
 46
0.0
 47
0.0
 48
0.0
 49
0.0
140
0.0
141
0.0
142
1.0
143
2.6653696498
 70
   688
 72
     1
 73
     1
 74
     1
  7

 75
     0
 76
     0
 77
     2
 78
   300
147
0.3751824818
148
342.5
149
212.5
100
AcDbLayout
  1
_Oben
 70
     1
 71
     1
 10
-395.8073929961
 20
-232.4902723735
 11
395.8073929961
 21
327.2373540856
 12
0.0
 22
0.0
 32
0.0
 14
-342.5
 24
-212.5
 34
0.0
 15
342.5
 25
212.5
 35
0.0
146
0.0
 13
0.0
 23
0.0
 33
0.0
 16
1.0
 26
0.0
 36
0.0
 17
0.0
 27
1.0
 37
0.0
 76
     0
330
1B
331
E5
  0
LAYOUT
  5
B1
102
{ACAD_REACTORS
330
1A
102
}
330
1A
100
AcDbPlotSettings
  1

  2
none_device
  4
ISO_A4_(210.00_x_297.00_MM)
  6

 40
7.5
 41
20.0
 42
7.5
 43
20.0
 44
210.0
 45
297.0
 46
0.0
 47
0.0
 48
0.0
 49
0.0
140
0.0
141
0.0
142
1.0
143
2.6653696498
 70
   688
 72
     1
 73
     1
 74
     1
  7

 75
     0
 76
     0
 77
     2
 78
   300
147
0.3751824818
148
342.5
149
212.5
100
AcDbLayout
  1
_Rechts
 70
     1
 71
     6
 10
0.0
 20
0.0
 11
0.0
 21
0.0
 12
0.0
 22
0.0
 32
0.0
 14
0.0
 24
0.0
 34
0.0
 15
0.0
 25
0.0
 35
0.0
146
0.0
 13
0.0
 23
0.0
 33
0.0
 16
1.0
 26
0.0
 36
0.0
 17
0.0
 27
1.0
 37
0.0
 76
     0
330
B0
331
EF
  0
LAYOUT
  5
A1
102
{ACAD_REACTORS
330
1A
102
}
330
1A
100
AcDbPlotSettings
  1

  2
none_device
  4
ISO_A4_(210.00_x_297.00_MM)
  6

 40
7.5
 41
20.0
 42
7.5
 43
20.0
 44
210.0
 45
297.0
 46
0.0
 47
0.0
 48
0.0
 49
0.0
140
0.0
141
0.0
142
1.0
143
2.6653696498
 70
   688
 72
     1
 73
     1
 74
     1
  7

 75
     0
 76
     0
 77
     2
 78
   300
147
0.3751824818
148
342.5
149
212.5
100
AcDbLayout
  1
_Rückseite
 70
     1
 71
     5
 10
0.0
 20
0.0
 11
0.0
 21
0.0
 12
0.0
 22
0.0
 32
0.0
 14
0.0
 24
0.0
 34
0.0
 15
0.0
 25
0.0
 35
0.0
146
0.0
 13
0.0
 23
0.0
 33
0.0
 16
1.0
 26
0.0
 36
0.0
 17
0.0
 27
1.0
 37
0.0
 76
     0
330
A0
331
ED
  0
LAYOUT
  5
D6
102
{ACAD_REACTORS
330
1A
102
}
330
1A
100
AcDbPlotSettings
  1

  2
none_device
  4
ISO_A4_(210.00_x_297.00_MM)
  6

 40
7.5
 41
20.0
 42
7.5
 43
20.0
 44
210.0
 45
297.0
 46
0.0
 47
0.0
 48
0.0
 49
0.0
140
0.0
141
0.0
142
1.0
143
2.6653696498
 70
   688
 72
     1
 73
     1
 74
     1
  7

 75
     0
 76
     0
 77
     2
 78
   300
147
0.3751824818
148
342.5
149
212.5
100
AcDbLayout
  1
_Trimetrisch
 70
     1
 71
     9
 10
0.0
 20
0.0
 11
0.0
 21
0.0
 12
0.0
 22
0.0
 32
0.0
 14
0.0
 24
0.0
 34
0.0
 15
0.0
 25
0.0
 35
0.0
146
0.0
 13
0.0
 23
0.0
 33
0.0
 16
1.0
 26
0.0
 36
0.0
 17
0.0
 27
1.0
 37
0.0
 76
     0
330
D5
331
F5
  0
LAYOUT
  5
C4
102
{ACAD_REACTORS
330
1A
102
}
330
1A
100
AcDbPlotSettings
  1

  2
none_device
  4
ISO_A4_(210.00_x_297.00_MM)
  6

 40
7.5
 41
20.0
 42
7.5
 43
20.0
 44
210.0
 45
297.0
 46
0.0
 47
0.0
 48
0.0
 49
0.0
140
0.0
141
0.0
142
1.0
143
2.6653696498
 70
   688
 72
     1
 73
     1
 74
     1
  7

 75
     0
 76
     0
 77
     2
 78
   300
147
0.3751824818
148
342.5
149
212.5
100
AcDbLayout
  1
_Unten
 70
     1
 71
     7
 10
0.0
 20
0.0
 11
0.0
 21
0.0
 12
0.0
 22
0.0
 32
0.0
 14
0.0
 24
0.0
 34
0.0
 15
0.0
 25
0.0
 35
0.0
146
0.0
 13
0.0
 23
0.0
 33
0.0
 16
1.0
 26
0.0
 36
0.0
 17
0.0
 27
1.0
 37
0.0
 76
     0
330
C3
331
F1
  0
LAYOUT
  5
26
102
{ACAD_REACTORS
330
1A
102
}
330
1A
100
AcDbPlotSettings
  1

  2
none_device
  4
ISO_A4_(210.00_x_297.00_MM)
  6

 40
7.5
 41
20.0
 42
7.5
 43
20.0
 44
210.0
 45
297.0
 46
0.0
 47
0.0
 48
0.0
 49
0.0
140
0.0
141
0.0
142
1.0
143
2.6653696498
 70
   688
 72
     1
 73
     1
 74
     1
  7

 75
     0
 76
     0
 77
     2
 78
   300
147
0.3751824818
148
342.5
149
212.5
100
AcDbLayout
  1
_Vorderseite
 70
     1
 71
     2
 10
0.0
 20
0.0
 11
0.0
 21
0.0
 12
0.0
 22
0.0
 32
0.0
 14
0.0
 24
0.0
 34
0.0
 15
0.0
 25
0.0
 35
0.0
146
0.0
 13
0.0
 23
0.0
 33
0.0
 16
1.0
 26
0.0
 36
0.0
 17
0.0
 27
1.0
 37
0.0
 76
     0
330
23
331
E7
  0
LAYOUT
  5
22
102
{ACAD_REACTORS
330
1A
102
}
330
1A
100
AcDbPlotSettings
  1

  2
none_device
  4
ANSI_A_(11.00_x_8.50_Inches)
  6

 40
6.35
 41
19.05
 42
6.35000508
 43
19.05000254
 44
279.4
 45
215.9
 46
133.34999746
 47
94.7543525045
 48
0.0
 49
0.0
140
0.0
141
0.0
142
0.0191157011
143
1.0
 70
  1696
 72
     0
 73
     0
 74
     0
  7

 75
     0
 76
     0
 77
     2
 78
   300
147
0.0179189148
148
-1300.4909072572
149
0.0
100
AcDbLayout
  1
Model
 70
     1
 71
     0
 10
0.0
 20
0.0
 11
420.0
 21
297.0
 12
0.0
 22
0.0
 32
0.0
 14
-284.8443779256
 24
-188.5520339508
 34
0.0
 15
284.8443779256
 25
164.4371592331
 35
0.0
146
0.0
 13
0.0
 23
0.0
 33
0.0
 16
1.0
 26
0.0
 36
0.0
 17
0.0
 27
1.0
 37
0.0
 76
     0
330
1F
331
29
  0
MATERIAL
  5
45
102
{ACAD_REACTORS
330
43
102
}
330
43
100
AcDbMaterial
  1
ByBlock
 72
     1
 94
      127
  0
MATERIAL
  5
44
102
{ACAD_REACTORS
330
43
102
}
330
43
100
AcDbMaterial
  1
ByLayer
 72
     1
 94
      127
  0
MATERIAL
  5
46
102
{ACAD_REACTORS
330
43
102
}
330
43
100
AcDbMaterial
  1
Global
 72
     1
 94
      127
  0
MLEADERSTYLE
  5
6C
102
{ACAD_REACTORS
330
6B
102
}
330
6B
100
AcDbMLeaderStyle
170
     2
171
     1
172
     0
 90
        2
 40
0.0
 41
0.0
173
     1
 91
-1056964608
340
14
 92
       -2
290
     1
 42
2.0
291
     1
 43
8.0
  3
Standard
341
0
 44
4.0
300

342
11
174
     1
178
     6
175
     1
176
     0
 93
-1056964608
 45
4.0
292
     0
297
     0
 46
4.0
343
0
 94
-1056964608
 47
1.0
 49
1.0
140
1.0
293
     1
141
0.0
294
     1
177
     0
142
1.0
295
     0
296
     0
143
3.75
1001
ACAD_MLEADERVER
1070
     2
  0
MLINESTYLE
  5
18
102
{ACAD_REACTORS
330
17
102
}
330
17
100
AcDbMlineStyle
  2
Standard
 70
     0
  3

 62
   256
 51
90.0
 52
90.0
 71
     2
 49
0.5
 62
   256
  6
BYLAYER
 49
-0.5
 62
   256
  6
BYLAYER
  0
ACDBPLACEHOLDER
  5
F
102
{ACAD_REACTORS
330
E
102
}
330
E
  0
SCALE
  5
48
102
{ACAD_REACTORS
330
47
102
}
330
47
100
AcDbScale
 70
     0
300
1:1
140
1.0
141
1.0
290
     1
  0
SCALE
  5
49
102
{ACAD_REACTORS
330
47
102
}
330
47
100
AcDbScale
 70
     0
300
1:2
140
1.0
141
2.0
290
     0
  0
SCALE
  5
4A
102
{ACAD_REACTORS
330
47
102
}
330
47
100
AcDbScale
 70
     0
300
1:4
140
1.0
141
4.0
290
     0
  0
SCALE
  5
4B
102
{ACAD_REACTORS
330
47
102
}
330
47
100
AcDbScale
 70
     0
300
1:5
140
1.0
141
5.0
290
     0
  0
SCALE
  5
4C
102
{ACAD_REACTORS
330
47
102
}
330
47
100
AcDbScale
 70
     0
300
1:8
140
1.0
141
8.0
290
     0
  0
SCALE
  5
4D
102
{ACAD_REACTORS
330
47
102
}
330
47
100
AcDbScale
 70
     0
300
1:10
140
1.0
141
10.0
290
     0
  0
SCALE
  5
4E
102
{ACAD_REACTORS
330
47
102
}
330
47
100
AcDbScale
 70
     0
300
1:16
140
1.0
141
16.0
290
     0
  0
SCALE
  5
4F
102
{ACAD_REACTORS
330
47
102
}
330
47
100
AcDbScale
 70
     0
300
1:20
140
1.0
141
20.0
290
     0
  0
SCALE
  5
50
102
{ACAD_REACTORS
330
47
102
}
330
47
100
AcDbScale
 70
     0
300
1:30
140
1.0
141
30.0
290
     0
  0
SCALE
  5
51
102
{ACAD_REACTORS
330
47
102
}
330
47
100
AcDbScale
 70
     0
300
1:40
140
1.0
141
40.0
290
     0
  0
SCALE
  5
52
102
{ACAD_REACTORS
330
47
102
}
330
47
100
AcDbScale
 70
     0
300
1:50
140
1.0
141
50.0
290
     0
  0
SCALE
  5
53
102
{ACAD_REACTORS
330
47
102
}
330
47
100
AcDbScale
 70
     0
300
1:100
140
1.0
141
100.0
290
     0
  0
SCALE
  5
54
102
{ACAD_REACTORS
330
47
102
}
330
47
100
AcDbScale
 70
     0
300
2:1
140
2.0
141
1.0
290
     0
  0
SCALE
  5
55
102
{ACAD_REACTORS
330
47
102
}
330
47
100
AcDbScale
 70
     0
300
4:1
140
4.0
141
1.0
290
     0
  0
SCALE
  5
56
102
{ACAD_REACTORS
330
47
102
}
330
47
100
AcDbScale
 70
     0
300
8:1
140
8.0
141
1.0
290
     0
  0
SCALE
  5
57
102
{ACAD_REACTORS
330
47
102
}
330
47
100
AcDbScale
 70
     0
300
10:1
140
10.0
141
1.0
290
     0
  0
SCALE
  5
58
102
{ACAD_REACTORS
330
47
102
}
330
47
100
AcDbScale
 70
     0
300
100:1
140
100.0
141
1.0
290
     0
  0
SCALE
  5
59
102
{ACAD_REACTORS
330
47
102
}
330
47
100
AcDbScale
 70
     0
300
1/128" = 1'-0"
140
0.0078125
141
12.0
290
     0
  0
SCALE
  5
5A
102
{ACAD_REACTORS
330
47
102
}
330
47
100
AcDbScale
 70
     0
300
1/64" = 1'-0"
140
0.015625
141
12.0
290
     0
  0
SCALE
  5
5B
102
{ACAD_REACTORS
330
47
102
}
330
47
100
AcDbScale
 70
     0
300
1/32" = 1'-0"
140
0.03125
141
12.0
290
     0
  0
SCALE
  5
5C
102
{ACAD_REACTORS
330
47
102
}
330
47
100
AcDbScale
 70
     0
300
1/16" = 1'-0"
140
0.0625
141
12.0
290
     0
  0
SCALE
  5
5D
102
{ACAD_REACTORS
330
47
102
}
330
47
100
AcDbScale
 70
     0
300
3/32" = 1'-0"
140
0.09375
141
12.0
290
     0
  0
SCALE
  5
5E
102
{ACAD_REACTORS
330
47
102
}
330
47
100
AcDbScale
 70
     0
300
1/8" = 1'-0"
140
0.125
141
12.0
290
     0
  0
SCALE
  5
5F
102
{ACAD_REACTORS
330
47
102
}
330
47
100
AcDbScale
 70
     0
300
3/16" = 1'-0"
140
0.1875
141
12.0
290
     0
  0
SCALE
  5
60
102
{ACAD_REACTORS
330
47
102
}
330
47
100
AcDbScale
 70
     0
300
1/4" = 1'-0"
140
0.25
141
12.0
290
     0
  0
SCALE
  5
61
102
{ACAD_REACTORS
330
47
102
}
330
47
100
AcDbScale
 70
     0
300
3/8" = 1'-0"
140
0.375
141
12.0
290
     0
  0
SCALE
  5
62
102
{ACAD_REACTORS
330
47
102
}
330
47
100
AcDbScale
 70
     0
300
1/2" = 1'-0"
140
0.5
141
12.0
290
     0
  0
SCALE
  5
63
102
{ACAD_REACTORS
330
47
102
}
330
47
100
AcDbScale
 70
     0
300
3/4" = 1'-0"
140
0.75
141
12.0
290
     0
  0
SCALE
  5
64
102
{ACAD_REACTORS
330
47
102
}
330
47
100
AcDbScale
 70
     0
300
1" = 1'-0"
140
1.0
141
12.0
290
     0
  0
SCALE
  5
65
102
{ACAD_REACTORS
330
47
102
}
330
47
100
AcDbScale
 70
     0
300
1-1/2" = 1'-0"
140
1.5
141
12.0
290
     0
  0
SCALE
  5
66
102
{ACAD_REACTORS
330
47
102
}
330
47
100
AcDbScale
 70
     0
300
3" = 1'-0"
140
3.0
141
12.0
290
     0
  0
SCALE
  5
67
102
{ACAD_REACTORS
330
47
102
}
330
47
100
AcDbScale
 70
     0
300
6" = 1'-0"
140
6.0
141
12.0
290
     0
  0
SCALE
  5
68
102
{ACAD_REACTORS
330
47
102
}
330
47
100
AcDbScale
 70
     0
300
1'-0" = 1'-0"
140
12.0
141
12.0
290
     0
  0
TABLESTYLE
  5
6A
102
{ACAD_REACTORS
330
69
102
}
102
{ACAD_XDICTIONARY
360
FB
102
}
330
69
100
AcDbTableStyle
  3
Standard
 70
     0
 71
     0
 40
0.06
 41
0.06
280
     0
281
     0
  7
Standard
140
4.5
170
     2
 62
     0
 63
   257
283
     0
 90
        4
 91
        0
  1

274
    -2
284
     1
 64
     0
275
    -2
285
     1
 65
     0
276
    -2
286
     1
 66
     0
277
    -2
287
     1
 67
     0
278
    -2
288
     1
 68
     0
279
    -2
289
     1
 69
     0
  7
Standard
140
6.0
170
     5
 62
     0
 63
   257
283
     0
 90
        4
 91
        0
  1

274
    -2
284
     1
 64
     0
275
    -2
285
     1
 65
     0
276
    -2
286
     1
 66
     0
277
    -2
287
     1
 67
     0
278
    -2
288
     1
 68
     0
279
    -2
289
     1
 69
     0
  7
Standard
140
4.5
170
     5
 62
     0
 63
   257
283
     0
 90
        4
 91
        0
  1

274
    -2
284
     1
 64
     0
275
    -2
285
     1
 65
     0
276
    -2
286
     1
 66
     0
277
    -2
287
     1
 67
     0
278
    -2
288
     1
 68
     0
279
    -2
289
     1
 69
     0
  0
VISUALSTYLE
  5
2F
102
{ACAD_REACTORS
330
2A
102
}
330
2A
100
AcDbVisualStyle
  2
2dWireframe
 70
     4
 71
     0
 72
     2
 73
     0
 90
        0
 40
0.6
 41
30.0
 62
     5
 63
     7
421
 16777215
 74
     1
 91
        4
 64
     7
 65
   257
 75
     1
175
     1
 42
1.0
 92
        0
 66
   257
 43
1.0
 76
     1
 77
     6
 78
     2
 67
     7
 79
     5
170
     0
171
     0
290
     0
174
     0
 93
        1
 44
0.0
173
     0
291
     0
 45
0.0
  0
VISUALSTYLE
  5
32
102
{ACAD_REACTORS
330
2A
102
}
330
2A
100
AcDbVisualStyle
  2
Basic
 70
     7
 71
     1
 72
     0
 73
     1
 90
        0
 40
0.6
 41
30.0
 62
     5
 63
     7
421
 16777215
 74
     0
 91
        4
 64
     7
 65
   257
 75
     1
175
     1
 42
1.0
 92
        8
 66
     7
 43
1.0
 76
     1
 77
     6
 78
     2
 67
     7
 79
     5
170
     0
171
     0
290
     0
174
     0
 93
        1
 44
0.0
173
     0
291
     1
 45
0.0
  0
VISUALSTYLE
  5
36
102
{ACAD_REACTORS
330
2A
102
}
330
2A
100
AcDbVisualStyle
  2
Brighten
 70
    12
 71
     2
 72
     2
 73
     0
 90
        0
 40
0.6
 41
30.0
 62
     5
 63
     7
421
 16777215
 74
     1
 91
        4
 64
     7
 65
   257
 75
     1
175
     1
 42
1.0
 92
        8
 66
     7
 43
1.0
 76
     1
 77
     6
 78
     2
 67
     7
 79
     5
170
     0
171
     0
290
     0
174
     0
 93
        1
 44
50.0
173
     0
291
     1
 45
0.0
  0
VISUALSTYLE
  5
3A
102
{ACAD_REACTORS
330
2A
102
}
330
2A
100
AcDbVisualStyle
  2
ColorChange
 70
    16
 71
     2
 72
     2
 73
     3
 90
        0
 40
0.6
 41
30.0
 62
     5
 63
     8
421
  8421504
 74
     1
 91
        4
 64
     7
 65
   257
 75
     1
175
     1
 42
1.0
 92
        8
 66
     8
424
  8421504
 43
1.0
 76
     1
 77
     6
 78
     2
 67
     7
 79
     5
170
     0
171
     0
290
     0
174
     0
 93
        1
 44
0.0
173
     0
291
     1
 45
0.0
  0
VISUALSTYLE
  5
34
102
{ACAD_REACTORS
330
2A
102
}
330
2A
100
AcDbVisualStyle
  2
Conceptual
 70
     9
 71
     3
 72
     2
 73
     0
 90
        0
 40
0.6
 41
30.0
 62
     5
 63
     7
421
 16777215
 74
     2
 91
        2
 64
     7
 65
   257
 75
     1
175
     1
 42
179.0
 92
        8
 66
     7
 43
1.0
 76
     1
 77
     6
 78
     2
 67
     7
 79
     3
170
     0
171
     0
290
     0
174
     0
 93
        1
 44
0.0
173
     0
291
     0
 45
0.0
  0
VISUALSTYLE
  5
35
102
{ACAD_REACTORS
330
2A
102
}
330
2A
100
AcDbVisualStyle
  2
Dim
 70
    11
 71
     2
 72
     2
 73
     0
 90
        0
 40
0.6
 41
30.0
 62
     5
 63
     7
421
 16777215
 74
     1
 91
        4
 64
     7
 65
   257
 75
     1
175
     1
 42
1.0
 92
        8
 66
     7
 43
1.0
 76
     1
 77
     6
 78
     2
 67
     7
 79
     5
170
     0
171
     0
290
     0
174
     0
 93
        1
 44
-50.0
173
     0
291
     1
 45
0.0
  0
VISUALSTYLE
  5
3D
102
{ACAD_REACTORS
330
2A
102
}
330
2A
100
AcDbVisualStyle
  2
EdgeColorOff
 70
    22
 71
     2
 72
     2
 73
     0
 90
        0
 40
0.6
 41
30.0
 62
     5
 63
     7
421
 16777215
 74
     1
 91
        4
 64
     7
 65
   257
 75
     1
175
     1
 42
1.0
 92
        8
 66
     7
 43
1.0
 76
     1
 77
     6
 78
     2
 67
     7
 79
     5
170
     0
171
     0
290
     0
174
     0
 93
        1
 44
0.0
173
     0
291
     1
 45
0.0
  0
VISUALSTYLE
  5
39
102
{ACAD_REACTORS
330
2A
102
}
330
2A
100
AcDbVisualStyle
  2
Facepattern
 70
    15
 71
     2
 72
     2
 73
     0
 90
        0
 40
0.6
 41
30.0
 62
     5
 63
     7
421
 16777215
 74
     1
 91
        4
 64
     7
 65
   257
 75
     1
175
     1
 42
1.0
 92
        8
 66
     7
 43
1.0
 76
     1
 77
     6
 78
     2
 67
     7
 79
     5
170
     0
171
     0
290
     0
174
     0
 93
        1
 44
0.0
173
     0
291
     1
 45
0.0
  0
VISUALSTYLE
  5
2B
102
{ACAD_REACTORS
330
2A
102
}
330
2A
100
AcDbVisualStyle
  2
Flat
 70
     0
 71
     2
 72
     1
 73
     1
 90
        2
 40
0.6
 41
30.0
 62
     5
 63
     7
421
 16777215
 74
     0
 91
        0
 64
     7
 65
   257
 75
     1
175
     1
 42
1.0
 92
        8
 66
     7
 43
1.0
 76
     1
 77
     6
 78
     2
 67
     7
 79
     5
170
     0
171
     0
290
     0
174
     0
 93
       13
 44
0.0
173
     0
291
     1
 45
0.0
  0
VISUALSTYLE
  5
2C
102
{ACAD_REACTORS
330
2A
102
}
330
2A
100
AcDbVisualStyle
  2
FlatWithEdges
 70
     1
 71
     2
 72
     1
 73
     1
 90
        2
 40
0.6
 41
30.0
 62
     5
 63
     7
421
 16777215
 74
     1
 91
        0
 64
     7
 65
   257
 75
     1
175
     1
 42
1.0
 92
        0
 66
   257
 43
1.0
 76
     1
 77
     6
 78
     2
 67
     7
 79
     5
170
     0
171
     0
290
     0
174
     0
 93
       13
 44
0.0
173
     0
291
     1
 45
0.0
  0
VISUALSTYLE
  5
2D
102
{ACAD_REACTORS
330
2A
102
}
330
2A
100
AcDbVisualStyle
  2
Gouraud
 70
     2
 71
     2
 72
     2
 73
     1
 90
        2
 40
0.6
 41
30.0
 62
     5
 63
     7
421
 16777215
 74
     0
 91
        0
 64
     7
 65
   257
 75
     1
175
     1
 42
1.0
 92
        0
 66
     7
 43
1.0
 76
     1
 77
     6
 78
     2
 67
     7
 79
     5
170
     0
171
     0
290
     0
174
     0
 93
       13
 44
0.0
173
     0
291
     1
 45
0.0
  0
VISUALSTYLE
  5
2E
102
{ACAD_REACTORS
330
2A
102
}
330
2A
100
AcDbVisualStyle
  2
GouraudWithEdges
 70
     3
 71
     2
 72
     2
 73
     1
 90
        2
 40
0.6
 41
30.0
 62
     5
 63
     7
421
 16777215
 74
     1
 91
        0
 64
     7
 65
   257
 75
     1
175
     1
 42
1.0
 92
        0
 66
   257
 43
1.0
 76
     1
 77
     6
 78
     2
 67
     7
 79
     5
170
     0
171
     0
290
     0
174
     0
 93
       13
 44
0.0
173
     0
291
     1
 45
0.0
  0
VISUALSTYLE
  5
31
102
{ACAD_REACTORS
330
2A
102
}
330
2A
100
AcDbVisualStyle
  2
Hidden
 70
     6
 71
     1
 72
     2
 73
     2
 90
        0
 40
0.6
 41
30.0
 62
     5
 63
     7
421
 16777215
 74
     2
 91
        2
 64
     7
 65
   257
 75
     2
175
     1
 42
40.0
 92
        0
 66
   257
 43
1.0
 76
     1
 77
     6
 78
     2
 67
     7
 79
     3
170
     0
171
     0
290
     0
174
     0
 93
        1
 44
0.0
173
     0
291
     0
 45
0.0
  0
VISUALSTYLE
  5
3B
102
{ACAD_REACTORS
330
2A
102
}
330
2A
100
AcDbVisualStyle
  2
JitterOff
 70
    20
 71
     2
 72
     2
 73
     0
 90
        0
 40
0.6
 41
30.0
 62
     5
 63
     7
421
 16777215
 74
     1
 91
        4
 64
     7
 65
   257
 75
     1
175
     1
 42
1.0
 92
       10
 66
     7
 43
1.0
 76
     1
 77
     6
 78
     2
 67
     7
 79
     5
170
     0
171
     0
290
     0
174
     0
 93
        1
 44
0.0
173
     0
291
     1
 45
0.0
  0
VISUALSTYLE
  5
38
102
{ACAD_REACTORS
330
2A
102
}
330
2A
100
AcDbVisualStyle
  2
Linepattern
 70
    14
 71
     2
 72
     2
 73
     0
 90
        0
 40
0.6
 41
30.0
 62
     5
 63
     7
421
 16777215
 74
     1
 91
        4
 64
     7
 65
   257
 75
     7
175
     7
 42
1.0
 92
        8
 66
     7
 43
1.0
 76
     1
 77
     6
 78
     2
 67
     7
 79
     5
170
     0
171
     0
290
     0
174
     0
 93
        1
 44
0.0
173
     0
291
     1
 45
0.0
  0
VISUALSTYLE
  5
3C
102
{ACAD_REACTORS
330
2A
102
}
330
2A
100
AcDbVisualStyle
  2
OverhangOff
 70
    21
 71
     2
 72
     2
 73
     0
 90
        0
 40
0.6
 41
30.0
 62
     5
 63
     7
421
 16777215
 74
     1
 91
        4
 64
     7
 65
   257
 75
     1
175
     1
 42
1.0
 92
        9
 66
     7
 43
1.0
 76
     1
 77
     6
 78
     2
 67
     7
 79
     5
170
     0
171
     0
290
     0
174
     0
 93
        1
 44
0.0
173
     0
291
     1
 45
0.0
  0
VISUALSTYLE
  5
33
102
{ACAD_REACTORS
330
2A
102
}
330
2A
100
AcDbVisualStyle
  2
Realistic
 70
     8
 71
     2
 72
     3
 73
     0
 90
        2
 40
0.6
 41
30.0
 62
     5
 63
     7
421
 16777215
 74
     0
 91
        0
 64
     7
 65
   257
 75
     1
175
     1
 42
1.0
 92
        8
 66
   257
 43
1.0
 76
     1
 77
     6
 78
     2
 67
     7
 79
     3
170
     0
171
     0
290
     0
174
     0
 93
       13
 44
0.0
173
     0
291
     0
 45
0.0
  0
VISUALSTYLE
  5
42
102
{ACAD_REACTORS
330
2A
102
}
330
2A
100
AcDbVisualStyle
  2
Shaded
 70
    27
 71
     2
 72
     2
 73
     1
 90
        2
 40
0.6
 41
30.0
 62
     5
 63
     7
421
 16777215
 74
     0
 91
        4
 64
     7
 65
   257
 75
     1
175
     1
 42
1.0
 92
        8
 66
   257
 43
1.0
 76
     1
 77
     6
 78
     2
 67
     8
425
  7895160
 79
     3
170
     0
171
     0
290
     0
174
     0
 93
        5
 44
0.0
173
     0
291
     0
 45
0.0
  0
VISUALSTYLE
  5
41
102
{ACAD_REACTORS
330
2A
102
}
330
2A
100
AcDbVisualStyle
  2
Shaded with edges
 70
    26
 71
     2
 72
     2
 73
     1
 90
        2
 40
0.6
 41
30.0
 62
     5
 63
     7
421
 16777215
 74
     1
 91
       10
 64
     7
 65
   257
 75
     2
175
     1
 42
1.0
 92
        8
 66
   257
 43
1.0
 76
     1
 77
     6
 78
     2
 67
     7
 79
     3
170
     0
171
     0
290
     0
174
     0
 93
        5
 44
0.0
173
     0
291
     0
 45
0.0
  0
VISUALSTYLE
  5
3E
102
{ACAD_REACTORS
330
2A
102
}
330
2A
100
AcDbVisualStyle
  2
Shades of Gray
 70
    23
 71
     2
 72
     2
 73
     3
 90
        0
 40
0.6
 41
30.0
 62
     5
 63
     7
421
 16777215
 74
     2
 91
        2
 64
     7
 65
     7
 75
     1
175
     1
 42
40.0
 92
        8
 66
     7
 43
1.0
 76
     1
 77
     6
 78
     2
 67
     7
 79
     3
170
     0
171
     0
290
     0
174
     0
 93
        1
 44
0.0
173
     0
291
     0
 45
0.0
  0
VISUALSTYLE
  5
3F
102
{ACAD_REACTORS
330
2A
102
}
330
2A
100
AcDbVisualStyle
  2
Sketchy
 70
    24
 71
     1
 72
     2
 73
     2
 90
        0
 40
0.6
 41
30.0
 62
     5
 63
     7
421
 16777215
 74
     2
 91
        2
 64
     7
 65
     7
 75
     1
175
     1
 42
40.0
 92
       11
 66
     7
 43
1.0
 76
     1
 77
     6
 78
     2
 67
     7
 79
     6
170
     0
171
     0
290
     0
174
     0
 93
        1
 44
0.0
173
     0
291
     0
 45
0.0
  0
VISUALSTYLE
  5
37
102
{ACAD_REACTORS
330
2A
102
}
330
2A
100
AcDbVisualStyle
  2
Thicken
 70
    13
 71
     2
 72
     2
 73
     0
 90
        0
 40
0.6
 41
30.0
 62
     5
 63
     7
421
 16777215
 74
     1
 91
        4
 64
     7
 65
   257
 75
     1
175
     1
 42
1.0
 92
       12
 66
     7
 43
1.0
 76
     1
 77
     6
 78
     2
 67
     7
 79
     5
170
     0
171
     0
290
     0
174
     0
 93
        1
 44
0.0
173
     0
291
     1
 45
0.0
  0
VISUALSTYLE
  5
30
102
{ACAD_REACTORS
330
2A
102
}
330
2A
100
AcDbVisualStyle
  2
Wireframe
 70
     5
 71
     0
 72
     2
 73
     0
 90
        0
 40
0.6
 41
30.0
 62
     5
 63
     7
421
 16777215
 74
     1
 91
        4
 64
     7
 65
   257
 75
     1
175
     1
 42
1.0
 92
        0
 66
   257
 43
1.0
 76
     1
 77
     6
 78
     2
 67
     7
 79
     3
170
     0
171
     0
290
     0
174
     0
 93
        1
 44
0.0
173
     0
291
     0
 45
0.0
  0
VISUALSTYLE
  5
40
102
{ACAD_REACTORS
330
2A
102
}
330
2A
100
AcDbVisualStyle
  2
X-Ray
 70
    25
 71
     2
 72
     2
 73
     1
 90
        1
 40
0.5
 41
30.0
 62
     5
 63
     7
421
 16777215
 74
     1
 91
        0
 64
     7
 65
   257
 75
     1
175
     1
 42
1.0
 92
        8
 66
     7
 43
1.0
 76
     1
 77
     6
 78
     2
 67
     7
 79
     3
170
     0
171
     0
290
     0
174
     0
 93
       13
 44
0.0
173
     0
291
     0
 45
0.0
  0
DICTIONARYVAR
  5
FA
102
{ACAD_REACTORS
330
F9
102
}
330
F9
100
DictionaryVariables
280
     0
  1
1:1
  0
DICTIONARYVAR
  5
100
102
{ACAD_REACTORS
330
F9
102
}
330
F9
100
DictionaryVariables
280
     0
  1
Standard
  0
DICTIONARYVAR
  5
FF
102
{ACAD_REACTORS
330
F9
102
}
330
F9
100
DictionaryVariables
280
     0
  1
Standard
  0
DICTIONARY
  5
FB
330
6A
100
AcDbDictionary
280
     1
281
     1
  3
ACAD_ROUNDTRIP_2008_TABLESTYLE_CELLSTYLEMAP
360
FC
  0
CELLSTYLEMAP
  5
FC
102
{ACAD_REACTORS
330
FB
102
}
330
FB
100
AcDbCellStyleMap
 90
        3
300
CELLSTYLE
  1
TABLEFORMAT_BEGIN
 90
        5
170
     1
 91
        0
 92
    32768
 62
   257
 93
        1
300
CONTENTFORMAT
  1
CONTENTFORMAT_BEGIN
 90
        0
 91
        0
 92
        4
 93
        0
300

 40
0.0
140
1.0
 94
        5
 62
     0
340
11
144
6.0
309
CONTENTFORMAT_END
171
     1
301
MARGIN
  1
CELLMARGIN_BEGIN
 40
1.5
 40
1.5
 40
1.5
 40
1.5
 40
1.5
 40
1.5
309
CELLMARGIN_END
 94
        6
 95
        1
302
GRIDFORMAT
  1
GRIDFORMAT_BEGIN
 90
        0
 91
        1
 62
     0
 92
       -2
340
14
 93
        0
 40
0.045
309
GRIDFORMAT_END
 95
        2
302
GRIDFORMAT
  1
GRIDFORMAT_BEGIN
 90
        0
 91
        1
 62
     0
 92
       -2
340
14
 93
        0
 40
0.045
309
GRIDFORMAT_END
 95
        4
302
GRIDFORMAT
  1
GRIDFORMAT_BEGIN
 90
        0
 91
        1
 62
     0
 92
       -2
340
14
 93
        0
 40
0.045
309
GRIDFORMAT_END
 95
        8
302
GRIDFORMAT
  1
GRIDFORMAT_BEGIN
 90
        0
 91
        1
 62
     0
 92
       -2
340
14
 93
        0
 40
0.045
309
GRIDFORMAT_END
 95
       16
302
GRIDFORMAT
  1
GRIDFORMAT_BEGIN
 90
        0
 91
        1
 62
     0
 92
       -2
340
14
 93
        0
 40
0.045
309
GRIDFORMAT_END
 95
       32
302
GRIDFORMAT
  1
GRIDFORMAT_BEGIN
 90
        0
 91
        1
 62
     0
 92
       -2
340
14
 93
        0
 40
0.045
309
GRIDFORMAT_END
309
TABLEFORMAT_END
  1
CELLSTYLE_BEGIN
 90
        1
 91
        1
300
_TITLE
309
CELLSTYLE_END
300
CELLSTYLE
  1
TABLEFORMAT_BEGIN
 90
        5
170
     1
 91
        0
 92
        0
 62
   257
 93
        1
300
CONTENTFORMAT
  1
CONTENTFORMAT_BEGIN
 90
        0
 91
        0
 92
        4
 93
        0
300

 40
0.0
140
1.0
 94
        5
 62
     0
340
11
144
4.5
309
CONTENTFORMAT_END
171
     1
301
MARGIN
  1
CELLMARGIN_BEGIN
 40
1.5
 40
1.5
 40
1.5
 40
1.5
 40
1.5
 40
1.5
309
CELLMARGIN_END
 94
        6
 95
        1
302
GRIDFORMAT
  1
GRIDFORMAT_BEGIN
 90
        0
 91
        1
 62
     0
 92
       -2
340
14
 93
        0
 40
0.045
309
GRIDFORMAT_END
 95
        2
302
GRIDFORMAT
  1
GRIDFORMAT_BEGIN
 90
        0
 91
        1
 62
     0
 92
       -2
340
14
 93
        0
 40
0.045
309
GRIDFORMAT_END
 95
        4
302
GRIDFORMAT
  1
GRIDFORMAT_BEGIN
 90
        0
 91
        1
 62
     0
 92
       -2
340
14
 93
        0
 40
0.045
309
GRIDFORMAT_END
 95
        8
302
GRIDFORMAT
  1
GRIDFORMAT_BEGIN
 90
        0
 91
        1
 62
     0
 92
       -2
340
14
 93
        0
 40
0.045
309
GRIDFORMAT_END
 95
       16
302
GRIDFORMAT
  1
GRIDFORMAT_BEGIN
 90
        0
 91
        1
 62
     0
 92
       -2
340
14
 93
        0
 40
0.045
309
GRIDFORMAT_END
 95
       32
302
GRIDFORMAT
  1
GRIDFORMAT_BEGIN
 90
        0
 91
        1
 62
     0
 92
       -2
340
14
 93
        0
 40
0.045
309
GRIDFORMAT_END
309
TABLEFORMAT_END
  1
CELLSTYLE_BEGIN
 90
        2
 91
        1
300
_HEADER
309
CELLSTYLE_END
300
CELLSTYLE
  1
TABLEFORMAT_BEGIN
 90
        5
170
     1
 91
        0
 92
        0
 62
   257
 93
        1
300
CONTENTFORMAT
  1
CONTENTFORMAT_BEGIN
 90
        0
 91
        0
 92
        4
 93
        0
300

 40
0.0
140
1.0
 94
        2
 62
     0
340
11
144
4.5
309
CONTENTFORMAT_END
171
     1
301
MARGIN
  1
CELLMARGIN_BEGIN
 40
1.5
 40
1.5
 40
1.5
 40
1.5
 40
1.5
 40
1.5
309
CELLMARGIN_END
 94
        6
 95
        1
302
GRIDFORMAT
  1
GRIDFORMAT_BEGIN
 90
        0
 91
        1
 62
     0
 92
       -2
340
14
 93
        0
 40
0.045
309
GRIDFORMAT_END
 95
        2
302
GRIDFORMAT
  1
GRIDFORMAT_BEGIN
 90
        0
 91
        1
 62
     0
 92
       -2
340
14
 93
        0
 40
0.045
309
GRIDFORMAT_END
 95
        4
302
GRIDFORMAT
  1
GRIDFORMAT_BEGIN
 90
        0
 91
        1
 62
     0
 92
       -2
340
14
 93
        0
 40
0.045
309
GRIDFORMAT_END
 95
        8
302
GRIDFORMAT
  1
GRIDFORMAT_BEGIN
 90
        0
 91
        1
 62
     0
 92
       -2
340
14
 93
        0
 40
0.045
309
GRIDFORMAT_END
 95
       16
302
GRIDFORMAT
  1
GRIDFORMAT_BEGIN
 90
        0
 91
        1
 62
     0
 92
       -2
340
14
 93
        0
 40
0.045
309
GRIDFORMAT_END
 95
       32
302
GRIDFORMAT
  1
GRIDFORMAT_BEGIN
 90
        0
 91
        1
 62
     0
 92
       -2
340
14
 93
        0
 40
0.045
309
GRIDFORMAT_END
309
TABLEFORMAT_END
  1
CELLSTYLE_BEGIN
 90
        3
 91
        2
300
_DATA
309
CELLSTYLE_END
  0
ENDSEC
  0
EOF
