  0
SECTION
  2
HEADER
  9
$ACADVER
  1
AC1015
  9
$ACADMAINTVER
 70
     6
  9
$DWGCODEPAGE
  3
ANSI_1252
  9
$INSBASE
 10
0.0
 20
0.0
 30
0.0
  9
$EXTMIN
 10
0.5
 20
0.0
 30
0.0
  9
$EXTMAX
 10
450.5
 20
250.0
 30
0.0
  9
$LIMMIN
 10
0.0
 20
0.0
  9
$LIMMAX
 10
420.0
 20
297.0
  9
$ORTHOMODE
 70
     0
  9
$REGENMODE
 70
     1
  9
$FILLMODE
 70
     1
  9
$QTEXTMODE
 70
     0
  9
$MIRRTEXT
 70
     1
  9
$LTSCALE
 40
1.0
  9
$ATTMODE
 70
     1
  9
$TEXTSIZE
 40
3.5
  9
$TRACEWID
 40
1.0
  9
$TEXTSTYLE
  7
STANDARD
  9
$CLAYER
  8
0
  9
$CELTYPE
  6
ByLayer
  9
$CECOLOR
 62
   256
  9
$CELTSCALE
 40
1.0
  9
$DISPSILH
 70
     0
  9
$DIMSCALE
 40
1.0
  9
$DIMASZ
 40
6.0
  9
$DIMEXO
 40
1.0
  9
$DIMDLI
 40
3.75
  9
$DIMRND
 40
0.0
  9
$DIMDLE
 40
0.0
  9
$DIMEXE
 40
1.0
  9
$DIMTP
 40
0.0
  9
$DIMTM
 40
0.0
  9
$DIMTXT
 40
3.5
  9
$DIMCEN
 40
2.5
  9
$DIMTSZ
 40
0.0
  9
$DIMTOL
 70
     0
  9
$DIMLIM
 70
     0
  9
$DIMTIH
 70
     1
  9
$DIMTOH
 70
     1
  9
$DIMSE1
 70
     0
  9
$DIMSE2
 70
     0
  9
$DIMTAD
 70
     1
  9
$DIMZIN
 70
     0
  9
$DIMBLK
  1

  9
$DIMASO
 70
     1
  9
$DIMSHO
 70
     1
  9
$DIMPOST
  1

  9
$DIMAPOST
  1

  9
$DIMALT
 70
     0
  9
$DIMALTD
 70
     3
  9
$DIMALTF
 40
0.0393700787
  9
$DIMLFAC
 40
1.0
  9
$DIMTOFL
 70
     1
  9
$DIMTVP
 40
0.0
  9
$DIMTIX
 70
     0
  9
$DIMSOXD
 70
     0
  9
$DIMSAH
 70
     0
  9
$DIMBLK1
  1

  9
$DIMBLK2
  1

  9
$DIMSTYLE
  2
ISO-25
  9
$DIMCLRD
 70
     0
  9
$DIMCLRE
 70
     0
  9
$DIMCLRT
 70
     0
  9
$DIMTFAC
 40
1.0
  9
$DIMGAP
 40
1.524
  9
$DIMJUST
 70
     0
  9
$DIMSD1
 70
     0
  9
$DIMSD2
 70
     0
  9
$DIMTOLJ
 70
     0
  9
$DIMTZIN
 70
     0
  9
$DIMALTZ
 70
     0
  9
$DIMALTTZ
 70
     0
  9
$DIMUPT
 70
     0
  9
$DIMDEC
 70
     2
  9
$DIMTDEC
 70
     2
  9
$DIMALTU
 70
     2
  9
$DIMALTTD
 70
     3
  9
$DIMTXSTY
  7
STANDARD
  9
$DIMAUNIT
 70
     0
  9
$DIMADEC
 70
     2
  9
$DIMALTRND
 40
0.0
  9
$DIMAZIN
 70
     0
  9
$DIMDSEP
 70
    44
  9
$DIMATFIT
 70
     3
  9
$DIMFRAC
 70
     0
  9
$DIMLDRBLK
  1

  9
$DIMLUNIT
 70
     2
  9
$DIMLWD
 70
    -2
  9
$DIMLWE
 70
    -2
  9
$DIMTMOVE
 70
     0
  9
$LUNITS
 70
     2
  9
$LUPREC
 70
     2
  9
$SKETCHINC
 40
1.0
  9
$FILLETRAD
 40
10.0
  9
$AUNITS
 70
     0
  9
$AUPREC
 70
     2
  9
$MENU
  1
.
  9
$ELEVATION
 40
0.0
  9
$PELEVATION
 40
0.0
  9
$THICKNESS
 40
0.0
  9
$LIMCHECK
 70
     0
  9
$CHAMFERA
 40
0.0
  9
$CHAMFERB
 40
0.0
  9
$CHAMFERC
 40
0.0
  9
$CHAMFERD
 40
0.0
  9
$SKPOLY
 70
     0
  9
$TDCREATE
 40
2458988.55178603
  9
$TDUCREATE
 40
2458988.468452697
  9
$TDUPDATE
 40
2458988.551815926
  9
$TDUUPDATE
 40
2458988.468482593
  9
$TDINDWG
 40
0.0000000116
  9
$TDUSRTIMER
 40
0.0000000116
  9
$USRTIMER
 70
     1
  9
$ANGBASE
 50
0.0
  9
$ANGDIR
 70
     0
  9
$PDMODE
 70
     0
  9
$PDSIZE
 40
-1.0
  9
$PLINEWID
 40
0.0
  9
$SPLFRAME
 70
     0
  9
$SPLINETYPE
 70
     6
  9
$SPLINESEGS
 70
     8
  9
$HANDSEED
  5
2EF
  9
$SURFTAB1
 70
     6
  9
$SURFTAB2
 70
     6
  9
$SURFTYPE
 70
     6
  9
$SURFU
 70
     6
  9
$SURFV
 70
     6
  9
$UCSBASE
  2

  9
$UCSNAME
  2

  9
$UCSORG
 10
0.0
 20
0.0
 30
0.0
  9
$UCSXDIR
 10
1.0
 20
0.0
 30
0.0
  9
$UCSYDIR
 10
0.0
 20
1.0
 30
0.0
  9
$UCSORTHOREF
  2

  9
$UCSORTHOVIEW
 70
     0
  9
$UCSORGTOP
 10
0.0
 20
0.0
 30
0.0
  9
$UCSORGBOTTOM
 10
0.0
 20
0.0
 30
0.0
  9
$UCSORGLEFT
 10
0.0
 20
0.0
 30
0.0
  9
$UCSORGRIGHT
 10
0.0
 20
0.0
 30
0.0
  9
$UCSORGFRONT
 10
0.0
 20
0.0
 30
0.0
  9
$UCSORGBACK
 10
0.0
 20
0.0
 30
0.0
  9
$PUCSBASE
  2

  9
$PUCSNAME
  2

  9
$PUCSORG
 10
0.0
 20
0.0
 30
0.0
  9
$PUCSXDIR
 10
1.0
 20
0.0
 30
0.0
  9
$PUCSYDIR
 10
0.0
 20
1.0
 30
0.0
  9
$PUCSORTHOREF
  2

  9
$PUCSORTHOVIEW
 70
     0
  9
$PUCSORGTOP
 10
0.0
 20
0.0
 30
0.0
  9
$PUCSORGBOTTOM
 10
0.0
 20
0.0
 30
0.0
  9
$PUCSORGLEFT
 10
0.0
 20
0.0
 30
0.0
  9
$PUCSORGRIGHT
 10
0.0
 20
0.0
 30
0.0
  9
$PUCSORGFRONT
 10
0.0
 20
0.0
 30
0.0
  9
$PUCSORGBACK
 10
0.0
 20
0.0
 30
0.0
  9
$USERI1
 70
     0
  9
$USERI2
 70
     0
  9
$USERI3
 70
     0
  9
$USERI4
 70
     0
  9
$USERI5
 70
     0
  9
$USERR1
 40
0.0
  9
$USERR2
 40
0.0
  9
$USERR3
 40
0.0
  9
$USERR4
 40
0.0
  9
$USERR5
 40
0.0
  9
$WORLDVIEW
 70
     1
  9
$SHADEDGE
 70
     3
  9
$SHADEDIF
 70
    70
  9
$TILEMODE
 70
     1
  9
$MAXACTVP
 70
    64
  9
$PINSBASE
 10
0.0
 20
0.0
 30
0.0
  9
$PLIMCHECK
 70
     0
  9
$PEXTMIN
 10
0.5
 20
0.0
 30
0.0
  9
$PEXTMAX
 10
450.5
 20
420.0
 30
0.0
  9
$PLIMMIN
 10
-42.5769230769
 20
-16.1538461538
  9
$PLIMMAX
 10
597.1153846154
 20
436.1538461538
  9
$UNITMODE
 70
     0
  9
$VISRETAIN
 70
     1
  9
$PLINEGEN
 70
     0
  9
$PSLTSCALE
 70
     1
  9
$TREEDEPTH
 70
  3020
  9
$CMLSTYLE
  2
Standard
  9
$CMLJUST
 70
     0
  9
$CMLSCALE
 40
20.0
  9
$PROXYGRAPHICS
 70
     1
  9
$MEASUREMENT
 70
     1
  9
$CELWEIGHT
370
    -1
  9
$ENDCAPS
280
     0
  9
$JOINSTYLE
280
     0
  9
$LWDISPLAY
290
     1
  9
$INSUNITS
 70
     4
  9
$HYPERLINKBASE
  1

  9
$STYLESHEET
  1

  9
$XEDIT
290
     1
  9
$CEPSNTYPE
380
     0
  9
$PSTYLEMODE
290
     1
  9
$FINGERPRINTGUID
  2
{8fe79792-00aa-4e73-9438-e45efac0882a}
  9
$VERSIONGUID
  2
{FAEB1C32-E019-11D5-929B-00C0DF256EC4}
  9
$EXTNAMES
290
     1
  9
$PSVPSCALE
 40
0.0
  9
$OLESTARTUP
290
     0
  0
ENDSEC
  0
SECTION
  2
CLASSES
  0
CLASS
  1
ACDBDICTIONARYWDFLT
  2
AcDbDictionaryWithDefault
  3
ObjectDBX Classes
 90
        0
280
     0
281
     0
  0
CLASS
  1
VISUALSTYLE
  2
AcDbVisualStyle
  3
ObjectDBX Classes
 90
     4095
280
     0
281
     0
  0
CLASS
  1
MATERIAL
  2
AcDbMaterial
  3
ObjectDBX Classes
 90
     1153
280
     0
281
     0
  0
CLASS
  1
SCALE
  2
AcDbScale
  3
ObjectDBX Classes
 90
     1153
280
     0
281
     0
  0
CLASS
  1
TABLESTYLE
  2
AcDbTableStyle
  3
ObjectDBX Classes
 90
     4095
280
     0
281
     0
  0
CLASS
  1
MLEADERSTYLE
  2
AcDbMLeaderStyle
  3
ACDB_MLEADERSTYLE_CLASS
 90
     4095
280
     0
281
     0
  0
CLASS
  1
SUN
  2
AcDbSun
  3
SCENEOE
 90
     1153
280
     0
281
     0
  0
CLASS
  1
ACDBPLACEHOLDER
  2
AcDbPlaceHolder
  3
ObjectDBX Classes
 90
        0
280
     0
281
     0
  0
CLASS
  1
LAYOUT
  2
AcDbLayout
  3
ObjectDBX Classes
 90
        0
280
     0
281
     0
  0
ENDSEC
  0
SECTION
  2
TABLES
  0
TABLE
  2
VPORT
  5
8
330
0
100
AcDbSymbolTable
 70
     1
  0
VPORT
  5
29
330
8
100
AcDbSymbolTableRecord
100
AcDbViewportTableRecord
  2
*Active
 70
     0
 10
0.0
 20
0.0
 11
1.0
 21
1.0
 12
225.5
 22
125.0
 13
0.0
 23
0.0
 14
10.0
 24
10.0
 15
10.0
 25
10.0
 16
0.0
 26
0.0
 36
1.0
 17
0.0
 27
0.0
 37
0.0
 40
255.0
 41
1.8
 42
50.0
 43
0.0
 44
0.0
 50
0.0
 51
0.0
 71
     0
 72
   100
 73
     1
 74
     3
 75
     0
 76
     0
 77
     0
 78
     0
281
     0
 65
     1
110
0.0
120
0.0
130
0.0
111
1.0
121
0.0
131
0.0
112
0.0
122
1.0
132
0.0
 79
     0
146
0.0
  0
ENDTAB
  0
TABLE
  2
LTYPE
  5
5
330
0
100
AcDbSymbolTable
 70
     6
  0
LTYPE
  5
14
330
5
100
AcDbSymbolTableRecord
100
AcDbLinetypeTableRecord
  2
ByBlock
 70
     0
  3

 72
    65
 73
     0
 40
0.0
  0
LTYPE
  5
15
330
5
100
AcDbSymbolTableRecord
100
AcDbLinetypeTableRecord
  2
ByLayer
 70
     0
  3

 72
    65
 73
     0
 40
0.0
  0
LTYPE
  5
16
330
5
100
AcDbSymbolTableRecord
100
AcDbLinetypeTableRecord
  2
Continuous
 70
     0
  3
Solid line
 72
    65
 73
     0
 40
0.0
  0
LTYPE
  5
6E
330
5
100
AcDbSymbolTableRecord
100
AcDbLinetypeTableRecord
  2
HIDDEN
 70
     0
  3
Hidden __ __ __ __ __ __ __ __ __ __ __ __ __ __
 72
    65
 73
     2
 40
1.905
 49
1.27
 74
     0
 49
-0.635
 74
     0
  0
LTYPE
  5
6F
330
5
100
AcDbSymbolTableRecord
100
AcDbLinetypeTableRecord
  2
PHANTOM
 70
     0
  3
Phantom ______  __  __  ______  __  __  ______
 72
    65
 73
     6
 40
12.7
 49
6.35
 74
     0
 49
-1.27
 74
     0
 49
1.27
 74
     0
 49
-1.27
 74
     0
 49
1.27
 74
     0
 49
-1.27
 74
     0
  0
LTYPE
  5
70
330
5
100
AcDbSymbolTableRecord
100
AcDbLinetypeTableRecord
  2
CENTER
 70
     0
  3
Center ____ _ ____ _ ____ _ ____ _ ____ _ ____
 72
    65
 73
     4
 40
10.16
 49
6.35
 74
     0
 49
-1.27
 74
     0
 49
1.27
 74
     0
 49
-1.27
 74
     0
  0
LTYPE
  5
71
330
5
100
AcDbSymbolTableRecord
100
AcDbLinetypeTableRecord
  2
CENTERX2
 70
     0
  3
Center (2x) ________  __  ________  __  _____
 72
    65
 73
     4
 40
20.32
 49
12.7
 74
     0
 49
-2.54
 74
     0
 49
2.54
 74
     0
 49
-2.54
 74
     0
  0
LTYPE
  5
72
330
5
100
AcDbSymbolTableRecord
100
AcDbLinetypeTableRecord
  2
DOT2
 70
     0
  3
Dot (.5x) ........................................
 72
    65
 73
     2
 40
0.635
 49
0.0
 74
     0
 49
-0.635
 74
     0
  0
ENDTAB
  0
TABLE
  2
LAYER
  5
2
330
0
100
AcDbSymbolTable
 70
     1
  0
LAYER
  5
10
330
2
100
AcDbSymbolTableRecord
100
AcDbLayerTableRecord
  2
0
 70
     0
 62
     7
  6
Continuous
370
    -3
390
F
  0
ENDTAB
  0
TABLE
  2
STYLE
  5
3
330
0
100
AcDbSymbolTable
 70
     1
  0
STYLE
  5
11
330
3
100
AcDbSymbolTableRecord
100
AcDbTextStyleTableRecord
  2
STANDARD
 70
     0
 40
0.0
 41
1.0
 50
0.0
 71
     0
 42
3.5
  3
GOTHIC.TTF
  4

1001
ACAD
1000
CENTURY GOTHIC
1071
       34
  0
ENDTAB
  0
TABLE
  2
VIEW
  5
6
330
0
100
AcDbSymbolTable
 70
     0
  0
ENDTAB
  0
TABLE
  2
UCS
  5
7
330
0
100
AcDbSymbolTable
 70
     0
  0
ENDTAB
  0
TABLE
  2
APPID
  5
9
330
0
100
AcDbSymbolTable
 70
     1
  0
APPID
  5
12
330
9
100
AcDbSymbolTableRecord
100
AcDbRegAppTableRecord
  2
ACAD
 70
     0
  0
ENDTAB
  0
TABLE
  2
DIMSTYLE
  5
A
330
0
100
AcDbSymbolTable
 70
     1
100
AcDbDimStyleTable
  0
DIMSTYLE
105
27
330
A
100
AcDbSymbolTableRecord
100
AcDbDimStyleTableRecord
  2
ISO-25
 70
     0
 41
2.5
 42
0.625
 43
3.75
 44
1.25
 73
     0
 74
     0
 77
     1
 78
     8
140
2.5
141
2.5
143
0.0393700787
147
0.625
171
     3
172
     1
178
     0
271
     2
272
     2
274
     3
278
    44
283
     0
284
     8
340
11
  0
ENDTAB
  0
TABLE
  2
BLOCK_RECORD
  5
1
330
0
100
AcDbSymbolTable
 70
     8
  0
BLOCK_RECORD
  5
1F
330
1
100
AcDbSymbolTableRecord
100
AcDbBlockTableRecord
  2
*Model_Space
340
22
  0
BLOCK_RECORD
  5
1B
330
1
100
AcDbSymbolTableRecord
100
AcDbBlockTableRecord
  2
*Paper_Space
340
1E
  0
BLOCK_RECORD
  5
23
330
1
100
AcDbSymbolTableRecord
100
AcDbBlockTableRecord
  2
*Paper_Space0
340
26
  0
BLOCK_RECORD
  5
EE
330
1
100
AcDbSymbolTableRecord
100
AcDbBlockTableRecord
  2
*Paper_Space1
340
EF
  0
BLOCK_RECORD
  5
132
330
1
100
AcDbSymbolTableRecord
100
AcDbBlockTableRecord
  2
*Paper_Space2
340
133
  0
BLOCK_RECORD
  5
183
330
1
100
AcDbSymbolTableRecord
100
AcDbBlockTableRecord
  2
*Paper_Space3
340
184
  0
BLOCK_RECORD
  5
19A
330
1
100
AcDbSymbolTableRecord
100
AcDbBlockTableRecord
  2
*Paper_Space4
340
19B
  0
BLOCK_RECORD
  5
1B2
330
1
100
AcDbSymbolTableRecord
100
AcDbBlockTableRecord
  2
*Paper_Space5
340
1B3
  0
BLOCK_RECORD
  5
215
330
1
100
AcDbSymbolTableRecord
100
AcDbBlockTableRecord
  2
*Paper_Space6
340
216
  0
BLOCK_RECORD
  5
280
330
1
100
AcDbSymbolTableRecord
100
AcDbBlockTableRecord
  2
*Paper_Space7
340
281
  0
ENDTAB
  0
ENDSEC
  0
SECTION
  2
BLOCKS
  0
BLOCK
  5
20
330
1F
100
AcDbEntity
  8
0
100
AcDbBlockBegin
  2
*Model_Space
 70
     0
 10
0.0
 20
0.0
 30
0.0
  3
*Model_Space
  1

  0
ENDBLK
  5
21
330
1F
100
AcDbEntity
  8
0
100
AcDbBlockEnd
  0
BLOCK
  5
1C
330
1B
100
AcDbEntity
 67
     1
  8
0
100
AcDbBlockBegin
  2
*Paper_Space
 70
     0
 10
0.0
 20
0.0
 30
0.0
  3
*Paper_Space
  1

  0
ENDBLK
  5
1D
330
1B
100
AcDbEntity
 67
     1
  8
0
100
AcDbBlockEnd
  0
BLOCK
  5
24
330
23
100
AcDbEntity
  8
0
100
AcDbBlockBegin
  2
*Paper_Space0
 70
     0
 10
0.0
 20
0.0
 30
0.0
  3
*Paper_Space0
  1

  0
LINE
  5
E6
330
23
100
AcDbEntity
  8
0
  6
Continuous
 62
     7
370
    25
100
AcDbLine
 10
0.0
 20
420.0
 30
0.0
 11
0.0
 21
250.0
 31
0.0
  0
LINE
  5
E7
330
23
100
AcDbEntity
  8
0
  6
Continuous
 62
     7
370
    25
100
AcDbLine
 10
0.0
 20
420.0
 30
0.0
 11
250.0
 21
420.0
 31
0.0
  0
LINE
  5
E8
330
23
100
AcDbEntity
  8
0
  6
Continuous
 62
     7
370
    25
100
AcDbLine
 10
250.0
 20
420.0
 30
0.0
 11
250.0
 21
0.0
 31
0.0
  0
LINE
  5
E9
330
23
100
AcDbEntity
  8
0
  6
Continuous
 62
     7
370
    25
100
AcDbLine
 10
0.0
 20
250.0
 30
0.0
 11
250.0
 21
250.0
 31
0.0
  0
LINE
  5
EA
330
23
100
AcDbEntity
  8
0
  6
Continuous
 62
     7
370
    25
100
AcDbLine
 10
3.0
 20
250.0
 30
0.0
 11
3.0
 21
0.0
 31
0.0
  0
LINE
  5
EB
330
23
100
AcDbEntity
  8
0
  6
Continuous
 62
     7
370
    25
100
AcDbLine
 10
3.0
 20
0.0
 30
0.0
 11
250.0
 21
0.0
 31
0.0
  0
LINE
  5
EC
330
23
100
AcDbEntity
  8
0
  6
Continuous
 62
     7
370
    25
100
AcDbLine
 10
3.0
 20
249.9999
 30
0.0
 11
250.0
 21
249.9999
 31
0.0
  0
LINE
  5
ED
330
23
100
AcDbEntity
  8
0
  6
Continuous
 62
     7
370
    25
100
AcDbLine
 10
3.0
 20
0.0001
 30
0.0
 11
250.0
 21
0.0001
 31
0.0
  0
VIEWPORT
  5
2DF
330
23
100
AcDbEntity
  8
0
100
AcDbViewport
 10
0.0
 20
0.0
 30
0.0
 40
205.6
 41
156.0
 68
     1
 69
     1
 12
225.5
 22
125.0
 13
0.0
 23
0.0
 14
10.0
 24
10.0
 15
10.0
 25
10.0
 16
0.0
 26
0.0
 36
1.0
 17
0.0
 27
0.0
 37
0.0
 42
50.0
 43
0.0
 44
0.0
 45
348.2684824903
 50
0.0
 51
0.0
 72
   100
 90
   557152
  1

281
     0
 71
     1
 74
     0
110
0.0
120
0.0
130
0.0
111
1.0
121
0.0
131
0.0
112
0.0
122
1.0
132
0.0
 79
     0
146
0.0
  0
ENDBLK
  5
25
330
23
100
AcDbEntity
  8
0
100
AcDbBlockEnd
  0
BLOCK
  5
F0
330
EE
100
AcDbEntity
  8
0
100
AcDbBlockBegin
  2
*Paper_Space1
 70
     0
 10
0.0
 20
0.0
 30
0.0
  3
*Paper_Space1
  1

  0
LINE
  5
115
330
EE
100
AcDbEntity
  8
0
  6
Continuous
 62
     7
370
    25
100
AcDbLine
 10
0.5
 20
420.0
 30
0.0
 11
450.5
 21
420.0
 31
0.0
  0
LINE
  5
116
330
EE
100
AcDbEntity
  8
0
  6
Continuous
 62
     7
370
    25
100
AcDbLine
 10
0.5
 20
420.0
 30
0.0
 11
0.5
 21
250.0
 31
0.0
  0
LINE
  5
117
330
EE
100
AcDbEntity
  8
0
  6
Continuous
 62
     7
370
    25
100
AcDbLine
 10
450.5
 20
420.0
 30
0.0
 11
450.5
 21
250.0
 31
0.0
  0
LINE
  5
118
330
EE
100
AcDbEntity
  8
0
  6
Continuous
 62
     7
370
    25
100
AcDbLine
 10
0.5
 20
250.0
 30
0.0
 11
450.5
 21
250.0
 31
0.0
  0
LINE
  5
119
330
EE
100
AcDbEntity
  8
0
  6
Continuous
 62
     7
370
    25
100
AcDbLine
 10
430.5
 20
232.0
 30
0.0
 11
19.5
 21
232.0
 31
0.0
  0
LINE
  5
11A
330
EE
100
AcDbEntity
  8
0
  6
Continuous
 62
     7
370
    25
100
AcDbLine
 10
430.5
 20
18.0001
 30
0.0
 11
430.5
 21
232.0
 31
0.0
  0
LINE
  5
11B
330
EE
100
AcDbEntity
  8
0
  6
Continuous
 62
     7
370
    25
100
AcDbLine
 10
19.5
 20
18.0001
 30
0.0
 11
430.5
 21
18.0001
 31
0.0
  0
LINE
  5
11C
330
EE
100
AcDbEntity
  8
0
  6
Continuous
 62
     7
370
    25
100
AcDbLine
 10
19.5
 20
232.0
 30
0.0
 11
19.5
 21
18.0001
 31
0.0
  0
LINE
  5
11D
330
EE
100
AcDbEntity
  8
0
  6
Continuous
 62
     7
370
    25
100
AcDbLine
 10
12.5
 20
239.0
 30
0.0
 11
12.5
 21
238.9999
 31
0.0
  0
LINE
  5
11E
330
EE
100
AcDbEntity
  8
0
  6
Continuous
 62
     7
370
    25
100
AcDbLine
 10
437.5
 20
239.0
 30
0.0
 11
437.5
 21
238.9999
 31
0.0
  0
LINE
  5
11F
330
EE
100
AcDbEntity
  8
0
  6
Continuous
 62
     7
370
    25
100
AcDbLine
 10
9.5
 20
242.0
 30
0.0
 11
440.5
 21
242.0
 31
0.0
  0
LINE
  5
120
330
EE
100
AcDbEntity
  8
0
  6
Continuous
 62
     7
370
    25
100
AcDbLine
 10
432.5
 20
234.0
 30
0.0
 11
448.5
 21
250.0
 31
0.0
  0
LINE
  5
121
330
EE
100
AcDbEntity
  8
0
  6
Continuous
 62
     7
370
    25
100
AcDbLine
 10
432.5
 20
234.0
 30
0.0
 11
17.5
 21
234.0
 31
0.0
  0
LINE
  5
122
330
EE
100
AcDbEntity
  8
0
  6
Continuous
 62
     7
370
    25
100
AcDbLine
 10
1.5
 20
250.0
 30
0.0
 11
17.5
 21
234.0
 31
0.0
  0
LINE
  5
123
330
EE
100
AcDbEntity
  8
0
  6
Continuous
 62
     7
370
    25
100
AcDbLine
 10
448.5
 20
249.9999
 30
0.0
 11
432.5
 21
233.9999
 31
0.0
  0
LINE
  5
124
330
EE
100
AcDbEntity
  8
0
  6
Continuous
 62
     7
370
    25
100
AcDbLine
 10
440.5
 20
241.9999
 30
0.0
 11
440.5
 21
8.0
 31
0.0
  0
LINE
  5
125
330
EE
100
AcDbEntity
  8
0
  6
Continuous
 62
     7
370
    25
100
AcDbLine
 10
432.5
 20
16.0001
 30
0.0
 11
432.5
 21
233.9999
 31
0.0
  0
LINE
  5
126
330
EE
100
AcDbEntity
  8
0
  6
Continuous
 62
     7
370
    25
100
AcDbLine
 10
448.5
 20
249.9999
 30
0.0
 11
448.5
 21
0.0
 31
0.0
  0
LINE
  5
127
330
EE
100
AcDbEntity
  8
0
  6
Continuous
 62
     7
370
    25
100
AcDbLine
 10
440.5
 20
8.0
 30
0.0
 11
448.5
 21
0.0
 31
0.0
  0
LINE
  5
128
330
EE
100
AcDbEntity
  8
0
  6
Continuous
 62
     7
370
    25
100
AcDbLine
 10
17.5
 20
233.9999
 30
0.0
 11
1.5
 21
249.9999
 31
0.0
  0
LINE
  5
129
330
EE
100
AcDbEntity
  8
0
  6
Continuous
 62
     7
370
    25
100
AcDbLine
 10
9.5
 20
8.0
 30
0.0
 11
9.5
 21
241.9999
 31
0.0
  0
LINE
  5
12A
330
EE
100
AcDbEntity
  8
0
  6
Continuous
 62
     7
370
    25
100
AcDbLine
 10
1.5
 20
249.9999
 30
0.0
 11
1.5
 21
0.0
 31
0.0
  0
LINE
  5
12B
330
EE
100
AcDbEntity
  8
0
  6
Continuous
 62
     7
370
    25
100
AcDbLine
 10
1.5
 20
0.0
 30
0.0
 11
9.5
 21
8.0
 31
0.0
  0
LINE
  5
12C
330
EE
100
AcDbEntity
  8
0
  6
Continuous
 62
     7
370
    25
100
AcDbLine
 10
17.5
 20
233.9999
 30
0.0
 11
17.5
 21
16.0001
 31
0.0
  0
LINE
  5
12D
330
EE
100
AcDbEntity
  8
0
  6
Continuous
 62
     7
370
    25
100
AcDbLine
 10
17.5
 20
16.0001
 30
0.0
 11
432.5
 21
16.0001
 31
0.0
  0
LINE
  5
12E
330
EE
100
AcDbEntity
  8
0
  6
Continuous
 62
     7
370
    25
100
AcDbLine
 10
432.5
 20
16.0001
 30
0.0
 11
448.5
 21
0.0001
 31
0.0
  0
LINE
  5
12F
330
EE
100
AcDbEntity
  8
0
  6
Continuous
 62
     7
370
    25
100
AcDbLine
 10
440.5
 20
8.0001
 30
0.0
 11
9.5
 21
8.0001
 31
0.0
  0
LINE
  5
130
330
EE
100
AcDbEntity
  8
0
  6
Continuous
 62
     7
370
    25
100
AcDbLine
 10
17.5
 20
16.0001
 30
0.0
 11
1.5
 21
0.0001
 31
0.0
  0
LINE
  5
131
330
EE
100
AcDbEntity
  8
0
  6
Continuous
 62
     7
370
    25
100
AcDbLine
 10
1.5
 20
0.0001
 30
0.0
 11
448.5
 21
0.0001
 31
0.0
  0
VIEWPORT
  5
2E1
330
EE
100
AcDbEntity
  8
0
100
AcDbViewport
 10
0.0
 20
0.0
 30
0.0
 40
205.6
 41
156.0
 68
     1
 69
     1
 12
225.5
 22
125.0
 13
0.0
 23
0.0
 14
10.0
 24
10.0
 15
10.0
 25
10.0
 16
0.0
 26
0.0
 36
1.0
 17
0.0
 27
0.0
 37
0.0
 42
50.0
 43
0.0
 44
0.0
 45
348.2684824903
 50
0.0
 51
0.0
 72
   100
 90
   557152
  1

281
     0
 71
     1
 74
     0
110
0.0
120
0.0
130
0.0
111
1.0
121
0.0
131
0.0
112
0.0
122
1.0
132
0.0
 79
     0
146
0.0
  0
ENDBLK
  5
F1
330
EE
100
AcDbEntity
  8
0
100
AcDbBlockEnd
  0
BLOCK
  5
134
330
132
100
AcDbEntity
  8
0
100
AcDbBlockBegin
  2
*Paper_Space2
 70
     0
 10
0.0
 20
0.0
 30
0.0
  3
*Paper_Space2
  1

  0
CIRCLE
  5
139
330
132
100
AcDbEntity
  8
0
  6
Continuous
 62
     7
370
    25
100
AcDbCircle
 10
-60.5
 20
360.0
 30
0.0
 40
2.75
  0
CIRCLE
  5
13A
330
132
100
AcDbEntity
  8
0
  6
Continuous
 62
     7
370
    25
100
AcDbCircle
 10
-225.5
 20
290.0
 30
0.0
 40
2.750000000000028
  0
CIRCLE
  5
13B
330
132
100
AcDbEntity
  8
0
  6
Continuous
 62
     7
370
    25
100
AcDbCircle
 10
-390.5
 20
360.0
 30
0.0
 40
2.749999999999943
  0
CIRCLE
  5
147
330
132
100
AcDbEntity
  8
0
  6
Continuous
 62
     7
370
    25
100
AcDbCircle
 10
-413.5
 20
216.0
 30
0.0
 40
6.000000000000057
  0
CIRCLE
  5
148
330
132
100
AcDbEntity
  8
0
  6
Continuous
 62
     7
370
    25
100
AcDbCircle
 10
-413.5
 20
166.0
 30
0.0
 40
6.000000000000057
  0
CIRCLE
  5
149
330
132
100
AcDbEntity
  8
0
  6
Continuous
 62
     7
370
    25
100
AcDbCircle
 10
-36.5
 20
216.0
 30
0.0
 40
5.999999999999972
  0
CIRCLE
  5
14A
330
132
100
AcDbEntity
  8
0
  6
Continuous
 62
     7
370
    25
100
AcDbCircle
 10
-36.5
 20
166.0
 30
0.0
 40
5.999999999999993
  0
LINE
  5
163
330
132
100
AcDbEntity
  8
0
  6
Continuous
 62
     7
370
    25
100
AcDbLine
 10
-430.5
 20
390.0
 30
0.0
 11
-430.5
 21
250.0
 31
0.0
  0
LINE
  5
164
330
132
100
AcDbEntity
  8
0
  6
Continuous
 62
     7
370
    25
100
AcDbLine
 10
-430.5
 20
390.0
 30
0.0
 11
-20.5
 21
390.0
 31
0.0
  0
LINE
  5
165
330
132
100
AcDbEntity
  8
0
  6
Continuous
 62
     7
370
    25
100
AcDbLine
 10
-20.5
 20
250.0
 30
0.0
 11
-20.5
 21
390.0
 31
0.0
  0
LINE
  5
166
330
132
100
AcDbEntity
  8
0
  6
Continuous
 62
     7
370
    25
100
AcDbLine
 10
-450.5
 20
250.0
 30
0.0
 11
-0.5
 21
250.0
 31
0.0
  0
LINE
  5
167
330
132
100
AcDbEntity
  8
0
  6
Continuous
 62
     7
370
    25
100
AcDbLine
 10
-450.5
 20
420.0
 30
0.0
 11
-0.5
 21
420.0
 31
0.0
  0
LINE
  5
168
330
132
100
AcDbEntity
  8
0
  6
Continuous
 62
     7
370
    25
100
AcDbLine
 10
-0.5
 20
420.0
 30
0.0
 11
-0.5
 21
250.0
 31
0.0
  0
LINE
  5
169
330
132
100
AcDbEntity
  8
0
  6
Continuous
 62
     7
370
    25
100
AcDbLine
 10
-450.5
 20
420.0
 30
0.0
 11
-450.5
 21
250.0
 31
0.0
  0
LINE
  5
16A
330
132
100
AcDbEntity
  8
0
  6
Continuous
 62
     7
370
    25
100
AcDbLine
 10
-437.5
 20
239.0
 30
0.0
 11
-437.5
 21
238.9999
 31
0.0
  0
LINE
  5
16B
330
132
100
AcDbEntity
  8
0
  6
Continuous
 62
     7
370
    25
100
AcDbLine
 10
-12.5
 20
239.0
 30
0.0
 11
-12.5
 21
238.9999
 31
0.0
  0
LINE
  5
16C
330
132
100
AcDbEntity
  8
0
  6
Continuous
 62
     7
370
    25
100
AcDbLine
 10
-65.0
 20
91.0001
 30
0.0
 11
-65.0
 21
159.0
 31
0.0
  0
LINE
  5
16D
330
132
100
AcDbEntity
  8
0
  6
Continuous
 62
     7
370
    25
100
AcDbLine
 10
-115.0
 20
209.0
 30
0.0
 11
-335.0
 21
209.0
 31
0.0
  0
LINE
  5
16E
330
132
100
AcDbEntity
  8
0
  6
Continuous
 62
     7
370
    25
100
AcDbLine
 10
-335.0
 20
41.0001
 30
0.0
 11
-115.0
 21
41.0001
 31
0.0
  0
LINE
  5
16F
330
132
100
AcDbEntity
  8
0
  6
Continuous
 62
     7
370
    25
100
AcDbLine
 10
-385.0
 20
159.0
 30
0.0
 11
-385.0
 21
91.0001
 31
0.0
  0
LINE
  5
170
330
132
100
AcDbEntity
  8
0
  6
Continuous
 62
     7
370
    25
100
AcDbLine
 10
-17.5
 20
234.0
 30
0.0
 11
-1.5
 21
250.0
 31
0.0
  0
LINE
  5
171
330
132
100
AcDbEntity
  8
0
  6
Continuous
 62
     7
370
    25
100
AcDbLine
 10
-432.5
 20
234.0
 30
0.0
 11
-17.5
 21
234.0
 31
0.0
  0
LINE
  5
172
330
132
100
AcDbEntity
  8
0
  6
Continuous
 62
     7
370
    25
100
AcDbLine
 10
-448.5
 20
250.0
 30
0.0
 11
-432.5
 21
234.0
 31
0.0
  0
LINE
  5
173
330
132
100
AcDbEntity
  8
0
  6
Continuous
 62
     7
370
    25
100
AcDbLine
 10
-432.5
 20
233.9999
 30
0.0
 11
-432.5
 21
16.0
 31
0.0
  0
LINE
  5
174
330
132
100
AcDbEntity
  8
0
  6
Continuous
 62
     7
370
    25
100
AcDbLine
 10
-448.5
 20
249.9999
 30
0.0
 11
-448.5
 21
0.0
 31
0.0
  0
LINE
  5
175
330
132
100
AcDbEntity
  8
0
  6
Continuous
 62
     7
370
    25
100
AcDbLine
 10
-448.5
 20
0.0
 30
0.0
 11
-432.5
 21
16.0
 31
0.0
  0
LINE
  5
176
330
132
100
AcDbEntity
  8
0
  6
Continuous
 62
     7
370
    25
100
AcDbLine
 10
-432.5
 20
233.9999
 30
0.0
 11
-448.5
 21
249.9999
 31
0.0
  0
LINE
  5
177
330
132
100
AcDbEntity
  8
0
  6
Continuous
 62
     7
370
    25
100
AcDbLine
 10
-1.5
 20
249.9999
 30
0.0
 11
-17.5
 21
233.9999
 31
0.0
  0
LINE
  5
178
330
132
100
AcDbEntity
  8
0
  6
Continuous
 62
     7
370
    25
100
AcDbLine
 10
-17.5
 20
16.0
 30
0.0
 11
-1.5
 21
0.0
 31
0.0
  0
LINE
  5
179
330
132
100
AcDbEntity
  8
0
  6
Continuous
 62
     7
370
    25
100
AcDbLine
 10
-1.5
 20
249.9999
 30
0.0
 11
-1.5
 21
0.0
 31
0.0
  0
LINE
  5
17A
330
132
100
AcDbEntity
  8
0
  6
Continuous
 62
     7
370
    25
100
AcDbLine
 10
-17.5
 20
233.9999
 30
0.0
 11
-17.5
 21
16.0
 31
0.0
  0
LINE
  5
17B
330
132
100
AcDbEntity
  8
0
  6
Continuous
 62
     7
370
    25
100
AcDbLine
 10
-432.5
 20
16.0001
 30
0.0
 11
-448.5
 21
0.0001
 31
0.0
  0
LINE
  5
17C
330
132
100
AcDbEntity
  8
0
  6
Continuous
 62
     7
370
    25
100
AcDbLine
 10
-1.5
 20
0.0001
 30
0.0
 11
-17.5
 21
16.0001
 31
0.0
  0
LINE
  5
17D
330
132
100
AcDbEntity
  8
0
  6
Continuous
 62
     7
370
    25
100
AcDbLine
 10
-448.5
 20
0.0001
 30
0.0
 11
-1.5
 21
0.0001
 31
0.0
  0
LINE
  5
17E
330
132
100
AcDbEntity
  8
0
  6
Continuous
 62
     7
370
    25
100
AcDbLine
 10
-432.5
 20
16.0001
 30
0.0
 11
-17.5
 21
16.0001
 31
0.0
  0
ARC
  5
17F
330
132
100
AcDbEntity
  8
0
  6
Continuous
 62
     7
370
    25
100
AcDbCircle
 10
-115.0
 20
91.0001
 30
0.0
 40
50.00000000000004
100
AcDbArc
 50
270.0
 51
0.0
  0
ARC
  5
180
330
132
100
AcDbEntity
  8
0
  6
Continuous
 62
     7
370
    25
100
AcDbCircle
 10
-115.0
 20
159.0
 30
0.0
 40
50.0
100
AcDbArc
 50
0.0
 51
90.0
  0
ARC
  5
181
330
132
100
AcDbEntity
  8
0
  6
Continuous
 62
     7
370
    25
100
AcDbCircle
 10
-335.0
 20
159.0
 30
0.0
 40
49.99999999999994
100
AcDbArc
 50
90.0
 51
180.0
  0
ARC
  5
182
330
132
100
AcDbEntity
  8
0
  6
Continuous
 62
     7
370
    25
100
AcDbCircle
 10
-335.0
 20
91.0001
 30
0.0
 40
49.99999999999995
100
AcDbArc
 50
180.0
 51
270.0
  0
VIEWPORT
  5
2E3
330
132
100
AcDbEntity
  8
0
100
AcDbViewport
 10
0.0
 20
0.0
 30
0.0
 40
205.6
 41
156.0
 68
     1
 69
     1
 12
225.5
 22
125.0
 13
0.0
 23
0.0
 14
10.0
 24
10.0
 15
10.0
 25
10.0
 16
0.0
 26
0.0
 36
1.0
 17
0.0
 27
0.0
 37
0.0
 42
50.0
 43
0.0
 44
0.0
 45
348.2684824903
 50
0.0
 51
0.0
 72
   100
 90
   557152
  1

281
     0
 71
     1
 74
     0
110
0.0
120
0.0
130
0.0
111
1.0
121
0.0
131
0.0
112
0.0
122
1.0
132
0.0
 79
     0
146
0.0
  0
ENDBLK
  5
135
330
132
100
AcDbEntity
  8
0
100
AcDbBlockEnd
  0
BLOCK
  5
185
330
183
100
AcDbEntity
  8
0
100
AcDbBlockBegin
  2
*Paper_Space3
 70
     0
 10
0.0
 20
0.0
 30
0.0
  3
*Paper_Space3
  1

  0
LINE
  5
192
330
183
100
AcDbEntity
  8
0
  6
Continuous
 62
     7
370
    25
100
AcDbLine
 10
-250.0
 20
420.0
 30
0.0
 11
-250.0
 21
0.0
 31
0.0
  0
LINE
  5
193
330
183
100
AcDbEntity
  8
0
  6
Continuous
 62
     7
370
    25
100
AcDbLine
 10
-250.0
 20
420.0
 30
0.0
 11
0.0
 21
420.0
 31
0.0
  0
LINE
  5
194
330
183
100
AcDbEntity
  8
0
  6
Continuous
 62
     7
370
    25
100
AcDbLine
 10
0.0
 20
420.0
 30
0.0
 11
0.0
 21
250.0
 31
0.0
  0
LINE
  5
195
330
183
100
AcDbEntity
  8
0
  6
Continuous
 62
     7
370
    25
100
AcDbLine
 10
-250.0
 20
250.0
 30
0.0
 11
0.0
 21
250.0
 31
0.0
  0
LINE
  5
196
330
183
100
AcDbEntity
  8
0
  6
Continuous
 62
     7
370
    25
100
AcDbLine
 10
-3.0
 20
250.0
 30
0.0
 11
-3.0
 21
0.0
 31
0.0
  0
LINE
  5
197
330
183
100
AcDbEntity
  8
0
  6
Continuous
 62
     7
370
    25
100
AcDbLine
 10
-250.0
 20
249.9999
 30
0.0
 11
-3.0
 21
249.9999
 31
0.0
  0
LINE
  5
198
330
183
100
AcDbEntity
  8
0
  6
Continuous
 62
     7
370
    25
100
AcDbLine
 10
-250.0
 20
0.0
 30
0.0
 11
-3.0
 21
0.0
 31
0.0
  0
LINE
  5
199
330
183
100
AcDbEntity
  8
0
  6
Continuous
 62
     7
370
    25
100
AcDbLine
 10
-250.0
 20
0.0001
 30
0.0
 11
-3.0
 21
0.0001
 31
0.0
  0
VIEWPORT
  5
2E5
330
183
100
AcDbEntity
  8
0
100
AcDbViewport
 10
0.0
 20
0.0
 30
0.0
 40
205.6
 41
156.0
 68
     1
 69
     1
 12
225.5
 22
125.0
 13
0.0
 23
0.0
 14
10.0
 24
10.0
 15
10.0
 25
10.0
 16
0.0
 26
0.0
 36
1.0
 17
0.0
 27
0.0
 37
0.0
 42
50.0
 43
0.0
 44
0.0
 45
348.2684824903
 50
0.0
 51
0.0
 72
   100
 90
   557152
  1

281
     0
 71
     1
 74
     0
110
0.0
120
0.0
130
0.0
111
1.0
121
0.0
131
0.0
112
0.0
122
1.0
132
0.0
 79
     0
146
0.0
  0
ENDBLK
  5
186
330
183
100
AcDbEntity
  8
0
100
AcDbBlockEnd
  0
BLOCK
  5
19C
330
19A
100
AcDbEntity
  8
0
100
AcDbBlockBegin
  2
*Paper_Space4
 70
     0
 10
0.0
 20
0.0
 30
0.0
  3
*Paper_Space4
  1

  0
LINE
  5
1AB
330
19A
100
AcDbEntity
  8
0
  6
Continuous
 62
     7
370
    25
100
AcDbLine
 10
0.5
 20
-250.0
 30
0.0
 11
0.5
 21
0.0
 31
0.0
  0
LINE
  5
1AC
330
19A
100
AcDbEntity
  8
0
  6
Continuous
 62
     7
370
    25
100
AcDbLine
 10
0.5
 20
0.0
 30
0.0
 11
450.5
 21
0.0
 31
0.0
  0
LINE
  5
1AD
330
19A
100
AcDbEntity
  8
0
  6
Continuous
 62
     7
370
    25
100
AcDbLine
 10
450.5
 20
0.0
 30
0.0
 11
450.5
 21
-250.0
 31
0.0
  0
LINE
  5
1AE
330
19A
100
AcDbEntity
  8
0
  6
Continuous
 62
     7
370
    25
100
AcDbLine
 10
450.5
 20
-250.0
 30
0.0
 11
0.5
 21
-250.0
 31
0.0
  0
LINE
  5
1AF
330
19A
100
AcDbEntity
  8
0
  6
Continuous
 62
     7
370
    25
100
AcDbLine
 10
448.5
 20
-3.0
 30
0.0
 11
448.5
 21
-250.0
 31
0.0
  0
LINE
  5
1B0
330
19A
100
AcDbEntity
  8
0
  6
Continuous
 62
     7
370
    25
100
AcDbLine
 10
1.5
 20
-3.0
 30
0.0
 11
448.5
 21
-3.0
 31
0.0
  0
LINE
  5
1B1
330
19A
100
AcDbEntity
  8
0
  6
Continuous
 62
     7
370
    25
100
AcDbLine
 10
1.5
 20
-250.0
 30
0.0
 11
1.5
 21
-3.0
 31
0.0
  0
VIEWPORT
  5
2E7
330
19A
100
AcDbEntity
  8
0
100
AcDbViewport
 10
0.0
 20
0.0
 30
0.0
 40
205.6
 41
156.0
 68
     1
 69
     1
 12
225.5
 22
125.0
 13
0.0
 23
0.0
 14
10.0
 24
10.0
 15
10.0
 25
10.0
 16
0.0
 26
0.0
 36
1.0
 17
0.0
 27
0.0
 37
0.0
 42
50.0
 43
0.0
 44
0.0
 45
348.2684824903
 50
0.0
 51
0.0
 72
   100
 90
   557152
  1

281
     0
 71
     1
 74
     0
110
0.0
120
0.0
130
0.0
111
1.0
121
0.0
131
0.0
112
0.0
122
1.0
132
0.0
 79
     0
146
0.0
  0
ENDBLK
  5
19D
330
19A
100
AcDbEntity
  8
0
100
AcDbBlockEnd
  0
BLOCK
  5
1B4
330
1B2
100
AcDbEntity
  8
0
100
AcDbBlockBegin
  2
*Paper_Space5
 70
     0
 10
0.0
 20
0.0
 30
0.0
  3
*Paper_Space5
  1

  0
LWPOLYLINE
  5
1C3
330
1B2
100
AcDbEntity
  8
0
  6
Continuous
 62
     7
370
    25
100
AcDbPolyline
 90
       45
 70
   128
 43
0.0
 10
359.2102448428
 20
223.34335261
 10
361.0972543496
 20
222.3994277139
 10
363.1977562459
 20
221.6201409114
 10
365.4689903705
 20
221.0213562345
 10
367.8647209464
 20
220.6152632124
 10
370.3361778075
 20
220.4101287282
 10
372.8330492195
 20
220.4101287282
 10
375.3045060807
 20
220.6152632124
 10
377.7002366565
 20
221.0213562345
 10
379.9714707811
 20
221.6201409114
 10
382.0719726775
 20
222.3994277139
 10
383.9589821843
 20
223.34335261
 10
385.5940852297
 20
224.4327000109
 10
386.943995831
 20
225.6452939448
 10
387.981233701
 20
226.9564494962
 10
388.684683668
 20
228.3394753191
 10
389.0400255192
 20
229.766216996
 10
389.0400255192
 20
231.2076301808
 10
388.684683668
 20
232.6343718577
 10
387.981233701
 20
234.0173976806
 10
386.943995831
 20
235.328553232
 10
385.5940852297
 20
236.541147166
 10
383.9589821843
 20
237.6304945669
 10
382.0719726775
 20
238.574419463
 10
379.9714707811
 20
239.3537062655
 10
377.7002366565
 20
239.9524909424
 10
375.3045060807
 20
240.3585839644
 10
372.8330492195
 20
240.5637184487
 10
370.3361778075
 20
240.5637184487
 10
367.8647209464
 20
240.3585839644
 10
365.4689903705
 20
239.9524909424
 10
363.1977562459
 20
239.3537062655
 10
361.0972543496
 20
238.574419463
 10
359.2102448428
 20
237.6304945669
 10
357.5751417974
 20
236.541147166
 10
356.2252311961
 20
235.328553232
 10
355.187993326
 20
234.0173976806
 10
354.484543359
 20
232.6343718577
 10
354.1292015079
 20
231.2076301808
 10
354.1292015079
 20
229.766216996
 10
354.484543359
 20
228.3394753191
 10
355.187993326
 20
226.9564494962
 10
356.2252311961
 20
225.6452939448
 10
357.5751417974
 20
224.4327000109
 10
359.2102448428
 20
223.34335261
  0
LINE
  5
1E7
330
1B2
100
AcDbEntity
  8
0
  6
Continuous
 62
     7
370
    25
100
AcDbLine
 10
0.3535533906
 20
342.7430389641
 30
0.0
 11
0.3535533906
 21
203.9311009435
 31
0.0
  0
LINE
  5
1E8
330
1B2
100
AcDbEntity
  8
0
  6
Continuous
 62
     7
370
    25
100
AcDbLine
 10
0.3535533906
 20
342.7430389641
 30
0.0
 11
318.5516049245
 21
159.0512138039
 31
0.0
  0
LINE
  5
1E9
330
1B2
100
AcDbEntity
  8
0
  6
Continuous
 62
     7
370
    25
100
AcDbLine
 10
318.5516049245
 20
159.0512138039
 30
0.0
 11
318.5516049245
 21
20.2392757834
 31
0.0
  0
LINE
  5
1EA
330
1B2
100
AcDbEntity
  8
0
  6
Continuous
 62
     7
370
    25
100
AcDbLine
 10
0.3535533906
 20
203.9311009435
 30
0.0
 11
318.5516049245
 21
20.2392757834
 31
0.0
  0
LINE
  5
1EB
330
1B2
100
AcDbEntity
  8
0
  6
Continuous
 62
     7
370
    25
100
AcDbLine
 10
318.5516049245
 20
159.0512138039
 30
0.0
 11
495.3283002212
 21
261.1022277818
 31
0.0
  0
LINE
  5
1EC
330
1B2
100
AcDbEntity
  8
0
  6
Continuous
 62
     7
370
    25
100
AcDbLine
 10
495.3283002212
 20
261.1022277818
 30
0.0
 11
495.3283002212
 21
122.2902897612
 31
0.0
  0
LINE
  5
1ED
330
1B2
100
AcDbEntity
  8
0
  6
Continuous
 62
     7
370
    25
100
AcDbLine
 10
318.5516049245
 20
20.2392757834
 30
0.0
 11
495.3283002212
 21
122.2902897612
 31
0.0
  0
LINE
  5
1EE
330
1B2
100
AcDbEntity
  8
0
  6
Continuous
 62
     7
370
    25
100
AcDbLine
 10
495.3283002212
 20
261.1022277818
 30
0.0
 11
177.1302486872
 21
444.7940529419
 31
0.0
  0
LINE
  5
1EF
330
1B2
100
AcDbEntity
  8
0
  6
Continuous
 62
     7
370
    25
100
AcDbLine
 10
177.1302486872
 20
444.7940529419
 30
0.0
 11
0.3535533906
 21
342.7430389641
 31
0.0
  0
LINE
  5
1F0
330
1B2
100
AcDbEntity
  8
0
  6
Continuous
 62
     7
370
    25
100
AcDbLine
 10
261.9830624296
 20
208.0357005133
 30
0.0
 11
410.4754864788
 21
293.7585522547
 31
0.0
  0
LINE
  5
1F1
330
1B2
100
AcDbEntity
  8
0
  6
Continuous
 62
     7
370
    25
100
AcDbLine
 10
410.4754864788
 20
293.7585522547
 30
0.0
 11
177.1302486872
 21
428.4658907054
 31
0.0
  0
LINE
  5
1F2
330
1B2
100
AcDbEntity
  8
0
  6
Continuous
 62
     7
370
    25
100
AcDbLine
 10
177.1302486872
 20
428.4658907054
 30
0.0
 11
28.6378246381
 21
342.7430389641
 31
0.0
  0
LINE
  5
1F3
330
1B2
100
AcDbEntity
  8
0
  6
Continuous
 62
     7
370
    25
100
AcDbLine
 10
28.6378246381
 20
342.7430389641
 30
0.0
 11
261.9830624296
 21
208.0357005133
 31
0.0
  0
LINE
  5
1F4
330
1B2
100
AcDbEntity
  8
0
  6
Continuous
 62
     7
370
    25
100
AcDbLine
 10
177.1302486872
 20
314.1501770414
 30
0.0
 11
177.1302486872
 21
428.4658907054
 31
0.0
  0
LINE
  5
1F5
330
1B2
100
AcDbEntity
  8
0
  6
Continuous
 62
     7
370
    25
100
AcDbLine
 10
177.1302486872
 20
314.1501770414
 30
0.0
 11
311.4644463416
 21
236.6006954227
 31
0.0
  0
LINE
  5
1F6
330
1B2
100
AcDbEntity
  8
0
  6
Continuous
 62
     7
370
    25
100
AcDbLine
 10
203.8863701713
 20
241.5742070669
 30
0.0
 11
177.1302486872
 21
314.1501770414
 31
0.0
  0
LINE
  5
1F7
330
1B2
100
AcDbEntity
  8
0
  6
Continuous
 62
     7
370
    25
100
AcDbLine
 10
127.6488647752
 20
285.5851821321
 30
0.0
 11
177.1302486872
 21
314.1501770414
 31
0.0
  0
LINE
  5
1F8
330
1B2
100
AcDbEntity
  8
0
  6
Continuous
 62
     7
370
    25
100
AcDbLine
 10
58.3363094479
 20
32.4546927002
 30
0.0
 11
313.6018574562
 21
-114.9069714838
 31
0.0
  0
LINE
  5
1F9
330
1B2
100
AcDbEntity
  8
0
  6
Continuous
 62
     7
370
    25
100
AcDbLine
 10
58.3363094479
 20
166.3742045986
 30
0.0
 11
58.3363094479
 21
32.4546927002
 31
0.0
  0
LINE
  5
1FA
330
1B2
100
AcDbEntity
  8
0
  6
Continuous
 62
     7
370
    25
100
AcDbLine
 10
313.6018574562
 20
19.0136020151
 30
0.0
 11
317.1377361084
 21
21.0554848774
 31
0.0
  0
LINE
  5
1FB
330
1B2
100
AcDbEntity
  8
0
  6
Continuous
 62
     7
370
    25
100
AcDbLine
 10
8.8388347648
 20
194.9495501129
 30
0.0
 11
313.6018574562
 21
19.0136020151
 31
0.0
  0
LINE
  5
1FC
330
1B2
100
AcDbEntity
  8
0
  6
Continuous
 62
     7
370
    25
100
AcDbLine
 10
5.3029561127
 20
201.0738715698
 30
0.0
 11
8.8388347648
 21
194.9495501129
 31
0.0
  0
LINE
  5
1FD
330
1B2
100
AcDbEntity
  8
0
  6
Continuous
 62
     7
370
    25
100
AcDbLine
 10
313.6018574562
 20
19.0136020151
 30
0.0
 11
313.6018574562
 21
-172.0569479661
 31
0.0
  0
LINE
  5
1FE
330
1B2
100
AcDbEntity
  8
0
  6
Continuous
 62
     7
370
    25
100
AcDbLine
 10
313.6018574562
 20
19.0125404146
 30
0.0
 11
20.1525432638
 21
188.4172236178
 31
0.0
  0
LINE
  5
1FF
330
1B2
100
AcDbEntity
  8
0
  6
Continuous
 62
     7
370
    25
100
AcDbLine
 10
20.1525432638
 20
188.4172236178
 30
0.0
 11
8.8388347648
 21
194.9495501129
 31
0.0
  0
LINE
  5
200
330
1B2
100
AcDbEntity
  8
0
  6
Continuous
 62
     7
370
    25
100
AcDbLine
 10
493.9140866588
 20
121.4738816494
 30
0.0
 11
493.9140866588
 21
-81.0285050984
 31
0.0
  0
LINE
  5
201
330
1B2
100
AcDbEntity
  8
0
  6
Continuous
 62
     7
370
    25
100
AcDbLine
 10
319.2587117057
 20
-181.8549069085
 30
0.0
 11
493.9140866588
 21
-81.0285050984
 31
0.0
  0
LINE
  5
202
330
1B2
100
AcDbEntity
  8
0
  6
Continuous
 62
     7
370
    25
100
AcDbLine
 10
319.2587117057
 20
20.6474798393
 30
0.0
 11
319.2587117057
 21
-181.8549069085
 31
0.0
  0
LINE
  5
203
330
1B2
100
AcDbEntity
  8
0
  6
Continuous
 62
     7
370
    25
100
AcDbLine
 10
313.6018574562
 20
-172.0569479661
 30
0.0
 11
319.2587117057
 21
-181.8549069085
 31
0.0
  0
LINE
  5
204
330
1B2
100
AcDbEntity
  8
0
  6
Continuous
 62
     7
370
    25
100
AcDbLine
 10
317.137806819
 20
21.055444057
 30
0.0
 11
313.6018574562
 21
19.0135203611
 31
0.0
  0
LINE
  5
205
330
1B2
100
AcDbEntity
  8
0
  6
Continuous
 62
     7
370
    25
100
AcDbLine
 10
20.152613986
 20
188.4171827908
 30
0.0
 11
20.1525432638
 21
188.4171419638
 31
0.0
  0
LINE
  5
206
330
1B2
100
AcDbEntity
  8
0
  6
Continuous
 62
     7
370
    25
100
AcDbLine
 10
20.1525432638
 20
188.4171419638
 30
0.0
 11
8.8388347648
 21
194.9494684588
 31
0.0
  0
LINE
  5
207
330
1B2
100
AcDbEntity
  8
0
  6
Continuous
 62
     7
370
    25
100
AcDbLine
 10
8.8388347648
 20
194.9494684588
 30
0.0
 11
5.302885402
 21
201.0739123903
 31
0.0
  0
LINE
  5
208
330
1B2
100
AcDbEntity
  8
0
  6
Continuous
 62
     7
370
    25
100
AcDbLine
 10
20.1525432638
 20
188.4171419638
 30
0.0
 11
20.1525432638
 21
10.4114082808
 31
0.0
  0
LINE
  5
209
330
1B2
100
AcDbEntity
  8
0
  6
Continuous
 62
     7
370
    25
100
AcDbLine
 10
8.8388347648
 20
3.8790001317
 30
0.0
 11
8.8388347648
 21
194.9494684588
 31
0.0
  0
LINE
  5
20A
330
1B2
100
AcDbEntity
  8
0
  6
Continuous
 62
     7
370
    25
100
AcDbLine
 10
3.1819805153
 20
0.6123060839
 30
0.0
 11
8.8388347648
 21
3.8790001317
 31
0.0
  0
LINE
  5
20B
330
1B2
100
AcDbEntity
  8
0
  6
Continuous
 62
     7
370
    25
100
AcDbLine
 10
3.1819805153
 20
202.2982847198
 30
0.0
 11
3.1819805153
 21
0.6123060839
 31
0.0
  0
LINE
  5
20C
330
1B2
100
AcDbEntity
  8
0
  6
Continuous
 62
     7
370
    25
100
AcDbLine
 10
319.2587117057
 20
-181.8548252544
 30
0.0
 11
493.9140866588
 21
-81.0284234443
 31
0.0
  0
LINE
  5
20D
330
1B2
100
AcDbEntity
  8
0
  6
Continuous
 62
     7
370
    25
100
AcDbLine
 10
319.2587117057
 20
-181.8548252544
 30
0.0
 11
313.6018574562
 21
-172.0568663121
 31
0.0
  0
LINE
  5
20E
330
1B2
100
AcDbEntity
  8
0
  6
Continuous
 62
     7
370
    25
100
AcDbLine
 10
3.1819805153
 20
0.6123877379
 30
0.0
 11
319.2587117057
 21
-181.8548252544
 31
0.0
  0
LINE
  5
20F
330
1B2
100
AcDbEntity
  8
0
  6
Continuous
 62
     7
370
    25
100
AcDbLine
 10
8.8388347648
 20
3.8790817857
 30
0.0
 11
3.1819805153
 21
0.6123877379
 31
0.0
  0
LINE
  5
210
330
1B2
100
AcDbEntity
  8
0
  6
Continuous
 62
     7
370
    25
100
AcDbLine
 10
313.6018574562
 20
-172.0568663121
 30
0.0
 11
8.8388347648
 21
3.8790817857
 31
0.0
  0
LINE
  5
211
330
1B2
100
AcDbEntity
  8
0
  6
Continuous
 62
     7
370
    25
100
AcDbLine
 10
20.1525432638
 20
10.4114082808
 30
0.0
 11
313.6018574562
 21
-158.9932749224
 31
0.0
  0
LINE
  5
212
330
1B2
100
AcDbEntity
  8
0
  6
Continuous
 62
     7
370
    25
100
AcDbLine
 10
8.8388347648
 20
3.8790817857
 30
0.0
 11
20.1525432638
 21
10.4114082808
 31
0.0
  0
LINE
  5
213
330
1B2
100
AcDbEntity
  8
0
  6
Continuous
 62
     7
370
    25
100
AcDbLine
 10
58.336539316
 20
32.4545600001
 30
0.0
 11
20.1525432638
 21
10.4114082808
 31
0.0
  0
ARC
  5
214
330
1B2
100
AcDbEntity
  8
0
  6
Continuous
 62
     7
370
    25
100
AcDbCircle
 10
371.5846135135
 20
196.3155911469
 30
0.0
 40
27.9730777366088
100
AcDbArc
 50
68.3845062247
 51
111.6154937753
  0
VIEWPORT
  5
2E9
330
1B2
100
AcDbEntity
  8
0
100
AcDbViewport
 10
0.0
 20
0.0
 30
0.0
 40
205.6
 41
156.0
 68
     1
 69
     1
 12
225.5
 22
125.0
 13
0.0
 23
0.0
 14
10.0
 24
10.0
 15
10.0
 25
10.0
 16
0.0
 26
0.0
 36
1.0
 17
0.0
 27
0.0
 37
0.0
 42
50.0
 43
0.0
 44
0.0
 45
348.2684824903
 50
0.0
 51
0.0
 72
   100
 90
   557152
  1

281
     0
 71
     1
 74
     0
110
0.0
120
0.0
130
0.0
111
1.0
121
0.0
131
0.0
112
0.0
122
1.0
132
0.0
 79
     0
146
0.0
  0
ENDBLK
  5
1B5
330
1B2
100
AcDbEntity
  8
0
100
AcDbBlockEnd
  0
BLOCK
  5
217
330
215
100
AcDbEntity
  8
0
100
AcDbBlockBegin
  2
*Paper_Space6
 70
     0
 10
0.0
 20
0.0
 30
0.0
  3
*Paper_Space6
  1

  0
LWPOLYLINE
  5
226
330
215
100
AcDbEntity
  8
0
  6
Continuous
 62
     7
370
    25
100
AcDbPolyline
 90
       45
 70
   128
 43
0.0
 10
404.3792120418
 20
312.7109437054
 10
406.6649939334
 20
312.1934475562
 10
409.0705039123
 20
311.8487610077
 10
411.5467727321
 20
311.6839008841
 10
414.0433907008
 20
311.702223262
 10
416.509533876
 20
311.9033551508
 10
418.8949986946
 20
312.2832020851
 10
421.1512239718
 20
312.8340314768
 10
423.2322794676
 20
313.5446300279
 10
425.0958008933
 20
314.4005320011
 10
426.7038523265
 20
315.3843137004
 10
428.0236984774
 20
316.4759481676
 10
429.0284710845
 20
317.6532128727
 10
429.6977158749
 20
318.8921421014
 10
430.0178089547
 20
320.1675148273
 10
429.9822341519
 20
321.4533681397
 10
429.5917156669
 20
322.7235257731
 10
428.8542033298
 20
323.952130981
 10
427.784710765
 20
325.1141729044
 10
426.4050097571
 20
326.1859957207
 10
424.7431870397
 20
327.1457802083
 10
422.8330725311
 20
327.9739879229
 10
420.7135506543
 20
328.6537589436
 10
418.4277687627
 20
329.1712550928
 10
416.0222587839
 20
329.5159416414
 10
413.545989964
 20
329.680801765
 10
411.0493719954
 20
329.662479387
 10
408.5832288201
 20
329.4613474983
 10
406.1977640016
 20
329.081500564
 10
403.9415387243
 20
328.5306711723
 10
401.8604832285
 20
327.8200726212
 10
399.9969618029
 20
326.964170648
 10
398.3889103696
 20
325.9803889486
 10
397.0690642187
 20
324.8887544815
 10
396.0642916117
 20
323.7114897764
 10
395.3950468212
 20
322.4725605477
 10
395.0749537414
 20
321.1971878217
 10
395.1105285442
 20
319.9113345094
 10
395.5010470292
 20
318.641176876
 10
396.2385593663
 20
317.412571668
 10
397.3080519311
 20
316.2505297447
 10
398.6877529391
 20
315.1787069283
 10
400.3495756565
 20
314.2189224407
 10
402.2596901651
 20
313.3907147262
 10
404.3792120418
 20
312.7109437054
  0
LINE
  5
24D
330
215
100
AcDbEntity
  8
0
  6
Continuous
 62
     7
370
    25
100
AcDbLine
 10
0.4422090608
 20
359.8900833476
 30
0.0
 11
0.4422090608
 21
214.1716422282
 31
0.0
  0
LINE
  5
24E
330
215
100
AcDbEntity
  8
0
  6
Continuous
 62
     7
370
    25
100
AcDbLine
 10
0.4422090608
 20
359.8900833476
 30
0.0
 11
398.4303638157
 21
251.7254307398
 31
0.0
  0
LINE
  5
24F
330
215
100
AcDbEntity
  8
0
  6
Continuous
 62
     7
370
    25
100
AcDbLine
 10
398.4303638157
 20
251.7254307398
 30
0.0
 11
398.4303638157
 21
106.0069896204
 31
0.0
  0
LINE
  5
250
330
215
100
AcDbEntity
  8
0
  6
Continuous
 62
     7
370
    25
100
AcDbLine
 10
0.4422090608
 20
214.1716422282
 30
0.0
 11
398.4303638157
 21
106.0069896204
 31
0.0
  0
LINE
  5
251
330
215
100
AcDbEntity
  8
0
  6
Continuous
 62
     7
370
    25
100
AcDbLine
 10
398.4303638157
 20
251.7254307398
 30
0.0
 11
515.1042110482
 21
365.6026824409
 31
0.0
  0
LINE
  5
252
330
215
100
AcDbEntity
  8
0
  6
Continuous
 62
     7
370
    25
100
AcDbLine
 10
515.1042110482
 20
365.6026824409
 30
0.0
 11
515.1042110482
 21
219.8842413215
 31
0.0
  0
LINE
  5
253
330
215
100
AcDbEntity
  8
0
  6
Continuous
 62
     7
370
    25
100
AcDbLine
 10
398.4303638157
 20
106.0069896204
 30
0.0
 11
515.1042110482
 21
219.8842413215
 31
0.0
  0
LINE
  5
254
330
215
100
AcDbEntity
  8
0
  6
Continuous
 62
     7
370
    25
100
AcDbLine
 10
515.1042110482
 20
365.6026824409
 30
0.0
 11
117.1160562934
 21
473.7673350486
 31
0.0
  0
LINE
  5
255
330
215
100
AcDbEntity
  8
0
  6
Continuous
 62
     7
370
    25
100
AcDbLine
 10
117.1160562934
 20
473.7673350486
 30
0.0
 11
0.4422090608
 21
359.8900833476
 31
0.0
  0
LINE
  5
256
330
215
100
AcDbEntity
  8
0
  6
Continuous
 62
     7
370
    25
100
AcDbLine
 10
319.3224594265
 20
284.8722003443
 30
0.0
 11
417.3284911019
 21
380.5290917732
 31
0.0
  0
LINE
  5
257
330
215
100
AcDbEntity
  8
0
  6
Continuous
 62
     7
370
    25
100
AcDbLine
 10
417.3284911019
 20
380.5290917732
 30
0.0
 11
125.4705109483
 21
459.8498370189
 31
0.0
  0
LINE
  5
258
330
215
100
AcDbEntity
  8
0
  6
Continuous
 62
     7
370
    25
100
AcDbLine
 10
125.4705109483
 20
459.8498370189
 30
0.0
 11
27.464479273
 21
364.19294559
 31
0.0
  0
LINE
  5
259
330
215
100
AcDbEntity
  8
0
  6
Continuous
 62
     7
370
    25
100
AcDbLine
 10
27.464479273
 20
364.19294559
 30
0.0
 11
319.3224594265
 21
284.8722003443
 31
0.0
  0
LINE
  5
25A
330
215
100
AcDbEntity
  8
0
  6
Continuous
 62
     7
370
    25
100
AcDbLine
 10
125.4705109483
 20
339.8464149206
 30
0.0
 11
125.4705109483
 21
459.8498370189
 31
0.0
  0
LINE
  5
25B
330
215
100
AcDbEntity
  8
0
  6
Continuous
 62
     7
370
    25
100
AcDbLine
 10
123.6357683679
 20
338.0556499154
 30
0.0
 11
125.4705109483
 21
339.8464149206
 31
0.0
  0
LINE
  5
25C
330
215
100
AcDbEntity
  8
0
  6
Continuous
 62
     7
370
    25
100
AcDbLine
 10
128.8197367455
 20
336.6467583894
 30
0.0
 11
125.4705109483
 21
339.8464149206
 31
0.0
  0
LINE
  5
25D
330
215
100
AcDbEntity
  8
0
  6
Continuous
 62
     7
370
    25
100
AcDbLine
 10
125.4705109483
 20
339.8464149206
 30
0.0
 11
321.157202007
 21
286.6629653494
 31
0.0
  0
LINE
  5
25E
330
215
100
AcDbEntity
  8
0
  6
Continuous
 62
     7
370
    25
100
AcDbLine
 10
46.6479628753
 20
39.4390296117
 30
0.0
 11
387.6444869037
 21
-53.2365189475
 31
0.0
  0
LINE
  5
25F
330
215
100
AcDbEntity
  8
0
  6
Continuous
 62
     7
370
    25
100
AcDbLine
 10
46.6479628753
 20
194.3050465476
 30
0.0
 11
46.6479628753
 21
39.4390296117
 31
0.0
  0
LINE
  5
260
330
215
100
AcDbEntity
  8
0
  6
Continuous
 62
     7
370
    25
100
AcDbLine
 10
390.9862687657
 20
102.9198371821
 30
0.0
 11
396.259031882
 21
106.597111114
 31
0.0
  0
LINE
  5
261
330
215
100
AcDbEntity
  8
0
  6
Continuous
 62
     7
370
    25
100
AcDbLine
 10
9.8020583227
 20
206.5175377908
 30
0.0
 11
390.9862687657
 21
102.9198371821
 31
0.0
  0
LINE
  5
262
330
215
100
AcDbEntity
  8
0
  6
Continuous
 62
     7
370
    25
100
AcDbLine
 10
4.5292952064
 20
213.0608597895
 30
0.0
 11
9.8020583227
 21
206.5175377908
 31
0.0
  0
LINE
  5
263
330
215
100
AcDbEntity
  8
0
  6
Continuous
 62
     7
370
    25
100
AcDbLine
 10
387.6444869037
 20
101.6294979884
 30
0.0
 11
20.6109664076
 21
201.3813442822
 31
0.0
  0
LINE
  5
264
330
215
100
AcDbEntity
  8
0
  6
Continuous
 62
     7
370
    25
100
AcDbLine
 10
20.6109664076
 20
201.3813442822
 30
0.0
 11
9.8020583227
 21
206.5175377908
 31
0.0
  0
LINE
  5
265
330
215
100
AcDbEntity
  8
0
  6
Continuous
 62
     7
370
    25
100
AcDbLine
 10
390.9862687657
 20
102.9198371821
 30
0.0
 11
387.6444869037
 21
101.6294979884
 31
0.0
  0
LINE
  5
266
330
215
100
AcDbEntity
  8
0
  6
Continuous
 62
     7
370
    25
100
AcDbLine
 10
396.2591203238
 20
106.5970870774
 30
0.0
 11
390.9862687657
 21
102.9197514653
 31
0.0
  0
LINE
  5
267
330
215
100
AcDbEntity
  8
0
  6
Continuous
 62
     7
370
    25
100
AcDbLine
 10
398.0616137391
 20
106.1072079899
 30
0.0
 11
398.0616137391
 21
-106.4375767453
 31
0.0
  0
LINE
  5
268
330
215
100
AcDbEntity
  8
0
  6
Continuous
 62
     7
370
    25
100
AcDbLine
 10
390.9862687657
 20
-97.6573111822
 30
0.0
 11
398.0616137391
 21
-106.4375767453
 31
0.0
  0
LINE
  5
269
330
215
100
AcDbEntity
  8
0
  6
Continuous
 62
     7
370
    25
100
AcDbLine
 10
390.9862687657
 20
102.9197514653
 30
0.0
 11
390.9862687657
 21
-97.6573111822
 31
0.0
  0
LINE
  5
26A
330
215
100
AcDbEntity
  8
0
  6
Continuous
 62
     7
370
    25
100
AcDbLine
 10
513.3353748048
 20
218.1578029218
 30
0.0
 11
513.3353748048
 21
6.0731479353
 31
0.0
  0
LINE
  5
26B
330
215
100
AcDbEntity
  8
0
  6
Continuous
 62
     7
370
    25
100
AcDbLine
 10
398.0616137391
 20
-106.4375767453
 30
0.0
 11
513.3353748048
 21
6.0731479353
 31
0.0
  0
LINE
  5
26C
330
215
100
AcDbEntity
  8
0
  6
Continuous
 62
     7
370
    25
100
AcDbLine
 10
390.9862687657
 20
102.9197514653
 30
0.0
 11
387.6444869037
 21
101.6294122716
 31
0.0
  0
LINE
  5
26D
330
215
100
AcDbEntity
  8
0
  6
Continuous
 62
     7
370
    25
100
AcDbLine
 10
387.6444869037
 20
101.6294122716
 30
0.0
 11
387.6446322091
 21
101.6295540941
 31
0.0
  0
LINE
  5
26E
330
215
100
AcDbEntity
  8
0
  6
Continuous
 62
     7
370
    25
100
AcDbLine
 10
387.6444869037
 20
-85.232887848
 30
0.0
 11
387.6444869037
 21
101.6294122716
 31
0.0
  0
LINE
  5
26F
330
215
100
AcDbEntity
  8
0
  6
Continuous
 62
     7
370
    25
100
AcDbLine
 10
20.6110351014
 20
201.3813256127
 30
0.0
 11
20.6109664076
 21
201.3812585654
 31
0.0
  0
LINE
  5
270
330
215
100
AcDbEntity
  8
0
  6
Continuous
 62
     7
370
    25
100
AcDbLine
 10
20.6109664076
 20
201.3812585654
 30
0.0
 11
9.8020583227
 21
206.5174520741
 31
0.0
  0
LINE
  5
271
330
215
100
AcDbEntity
  8
0
  6
Continuous
 62
     7
370
    25
100
AcDbLine
 10
9.8020583227
 20
206.5174520741
 30
0.0
 11
4.5292067646
 21
213.0608838261
 31
0.0
  0
LINE
  5
272
330
215
100
AcDbEntity
  8
0
  6
Continuous
 62
     7
370
    25
100
AcDbLine
 10
9.8020583227
 20
5.9403894265
 30
0.0
 11
9.8020583227
 21
206.5174520741
 31
0.0
  0
LINE
  5
273
330
215
100
AcDbEntity
  8
0
  6
Continuous
 62
     7
370
    25
100
AcDbLine
 10
2.7267133493
 20
1.0059781784
 30
0.0
 11
9.8020583227
 21
5.9403894265
 31
0.0
  0
LINE
  5
274
330
215
100
AcDbEntity
  8
0
  6
Continuous
 62
     7
370
    25
100
AcDbLine
 10
2.7267133493
 20
213.5507629136
 30
0.0
 11
2.7267133493
 21
1.0059781784
 31
0.0
  0
LINE
  5
275
330
215
100
AcDbEntity
  8
0
  6
Continuous
 62
     7
370
    25
100
AcDbLine
 10
20.6109664076
 20
201.3812585654
 30
0.0
 11
20.6109664076
 21
14.5189584458
 31
0.0
  0
LINE
  5
276
330
215
100
AcDbEntity
  8
0
  6
Continuous
 62
     7
370
    25
100
AcDbLine
 10
398.0616137391
 20
-106.4374910286
 30
0.0
 11
513.3353748048
 21
6.0732336521
 31
0.0
  0
LINE
  5
277
330
215
100
AcDbEntity
  8
0
  6
Continuous
 62
     7
370
    25
100
AcDbLine
 10
398.0616137391
 20
-106.4374910286
 30
0.0
 11
390.9862687657
 21
-97.6572254655
 31
0.0
  0
LINE
  5
278
330
215
100
AcDbEntity
  8
0
  6
Continuous
 62
     7
370
    25
100
AcDbLine
 10
387.6444869037
 20
-85.232887848
 30
0.0
 11
390.9862687657
 21
-97.6572254655
 31
0.0
  0
LINE
  5
279
330
215
100
AcDbEntity
  8
0
  6
Continuous
 62
     7
370
    25
100
AcDbLine
 10
20.6109664076
 20
14.5189584458
 30
0.0
 11
387.6444869037
 21
-85.232887848
 31
0.0
  0
LINE
  5
27A
330
215
100
AcDbEntity
  8
0
  6
Continuous
 62
     7
370
    25
100
AcDbLine
 10
390.9862687657
 20
-97.6572254655
 30
0.0
 11
9.8020583227
 21
5.9404751433
 31
0.0
  0
LINE
  5
27B
330
215
100
AcDbEntity
  8
0
  6
Continuous
 62
     7
370
    25
100
AcDbLine
 10
9.8020583227
 20
5.9404751433
 30
0.0
 11
20.6109664076
 21
14.5189584458
 31
0.0
  0
LINE
  5
27C
330
215
100
AcDbEntity
  8
0
  6
Continuous
 62
     7
370
    25
100
AcDbLine
 10
2.7267133493
 20
1.0060638951
 30
0.0
 11
398.0616137391
 21
-106.4374910286
 31
0.0
  0
LINE
  5
27D
330
215
100
AcDbEntity
  8
0
  6
Continuous
 62
     7
370
    25
100
AcDbLine
 10
9.8020583227
 20
5.9404751433
 30
0.0
 11
2.7267133493
 21
1.0060638951
 31
0.0
  0
LINE
  5
27E
330
215
100
AcDbEntity
  8
0
  6
Continuous
 62
     7
370
    25
100
AcDbLine
 10
46.6479628753
 20
39.9318651994
 30
0.0
 11
20.6109664076
 21
14.5189584458
 31
0.0
  0
ARC
  5
27F
330
215
100
AcDbEntity
  8
0
  6
Continuous
 62
     7
370
    25
100
AcDbCircle
 10
412.5463813481
 20
279.3917835314
 30
0.0
 40
33.16313399673095
100
AcDbArc
 50
80.6113253658
 51
99.3886746342
  0
VIEWPORT
  5
2EB
330
215
100
AcDbEntity
  8
0
100
AcDbViewport
 10
0.0
 20
0.0
 30
0.0
 40
205.6
 41
156.0
 68
     1
 69
     1
 12
225.5
 22
125.0
 13
0.0
 23
0.0
 14
10.0
 24
10.0
 15
10.0
 25
10.0
 16
0.0
 26
0.0
 36
1.0
 17
0.0
 27
0.0
 37
0.0
 42
50.0
 43
0.0
 44
0.0
 45
348.2684824903
 50
0.0
 51
0.0
 72
   100
 90
   557152
  1

281
     0
 71
     1
 74
     0
110
0.0
120
0.0
130
0.0
111
1.0
121
0.0
131
0.0
112
0.0
122
1.0
132
0.0
 79
     0
146
0.0
  0
ENDBLK
  5
218
330
215
100
AcDbEntity
  8
0
100
AcDbBlockEnd
  0
BLOCK
  5
282
330
280
100
AcDbEntity
  8
0
100
AcDbBlockBegin
  2
*Paper_Space7
 70
     0
 10
0.0
 20
0.0
 30
0.0
  3
*Paper_Space7
  1

  0
LWPOLYLINE
  5
291
330
280
100
AcDbEntity
  8
0
  6
Continuous
 62
     7
370
    25
100
AcDbPolyline
 90
       45
 70
   128
 43
0.0
 10
412.6404353431
 20
382.2994339371
 10
415.0330704342
 20
382.0614647121
 10
417.5029516053
 20
381.9394201626
 10
419.9997991983
 20
381.9357847638
 10
422.4727845966
 20
382.0506325219
 10
424.8715649489
 20
382.2816254677
 10
427.1473080047
 20
382.624061251
 10
429.2536861982
 20
383.0709688668
 10
431.1478197436
 20
383.6132505647
 10
432.7911495442
 20
384.2398670532
 10
434.1502221442
 20
384.9380622275
 10
435.1973707447
 20
385.6936228475
 10
435.9112784199
 20
386.4911678777
 10
436.2774120683
 20
387.3144616012
 10
436.2883182647
 20
388.146744132
 10
435.9437749903
 20
388.9710725979
 10
435.2507961527
 20
389.7706660485
 10
434.2234888026
 20
390.5292470669
 10
432.882765955
 20
391.2313731312
 10
431.255920861
 20
391.8627509796
 10
429.3760713951
 20
392.4105275796
 10
427.2814858714
 20
392.8635517795
 10
425.014804011
 20
393.2126013129
 10
422.6221689199
 20
393.4505705379
 10
420.1522877488
 20
393.5726150874
 10
417.6554401558
 20
393.5762504862
 10
415.1824547575
 20
393.4614027281
 10
412.7836744052
 20
393.2304097823
 10
410.5079313494
 20
392.887973999
 10
408.4015531559
 20
392.4410663832
 10
406.5074196104
 20
391.8987846853
 10
404.8640898098
 20
391.2721681968
 10
403.5050172099
 20
390.5739730225
 10
402.4578686094
 20
389.8184124025
 10
401.7439609341
 20
389.0208673723
 10
401.3778272857
 20
388.1975736488
 10
401.3669210894
 20
387.365291118
 10
401.7114643637
 20
386.5409626521
 10
402.4044432014
 20
385.7413692015
 10
403.4317505515
 20
384.9827881831
 10
404.772473399
 20
384.2806621188
 10
406.3993184931
 20
383.6492842704
 10
408.279167959
 20
383.1015076704
 10
410.3737534826
 20
382.6484834705
 10
412.6404353431
 20
382.2994339371
  0
LINE
  5
2B3
330
280
100
AcDbEntity
  8
0
  6
Continuous
 62
     7
370
    25
100
AcDbLine
 10
0.4677071734
 20
395.9208719112
 30
0.0
 11
0.4677071734
 21
235.6433348375
 31
0.0
  0
LINE
  5
2B4
330
280
100
AcDbEntity
  8
0
  6
Continuous
 62
     7
370
    25
100
AcDbLine
 10
0.4677071734
 20
395.9208719112
 30
0.0
 11
421.4041631992
 21
342.887863347
 31
0.0
  0
LINE
  5
2B5
330
280
100
AcDbEntity
  8
0
  6
Continuous
 62
     7
370
    25
100
AcDbLine
 10
421.4041631992
 20
342.887863347
 30
0.0
 11
421.4041631992
 21
182.6103262732
 31
0.0
  0
LINE
  5
2B6
330
280
100
AcDbEntity
  8
0
  6
Continuous
 62
     7
370
    25
100
AcDbLine
 10
0.4677071734
 20
235.6433348375
 30
0.0
 11
421.4041631992
 21
182.6103262732
 31
0.0
  0
LINE
  5
2B7
330
280
100
AcDbEntity
  8
0
  6
Continuous
 62
     7
370
    25
100
AcDbLine
 10
421.4041631992
 20
342.887863347
 30
0.0
 11
509.7925108273
 21
420.8390588888
 31
0.0
  0
LINE
  5
2B8
330
280
100
AcDbEntity
  8
0
  6
Continuous
 62
     7
370
    25
100
AcDbLine
 10
509.7925108273
 20
420.8390588888
 30
0.0
 11
509.7925108273
 21
260.561521815
 31
0.0
  0
LINE
  5
2B9
330
280
100
AcDbEntity
  8
0
  6
Continuous
 62
     7
370
    25
100
AcDbLine
 10
421.4041631992
 20
182.6103262732
 30
0.0
 11
509.7925108273
 21
260.561521815
 31
0.0
  0
LINE
  5
2BA
330
280
100
AcDbEntity
  8
0
  6
Continuous
 62
     7
370
    25
100
AcDbLine
 10
509.7925108273
 20
420.8390588888
 30
0.0
 11
88.8560548014
 21
473.872067453
 31
0.0
  0
LINE
  5
2BB
330
280
100
AcDbEntity
  8
0
  6
Continuous
 62
     7
370
    25
100
AcDbLine
 10
88.8560548014
 20
473.872067453
 30
0.0
 11
0.4677071734
 21
395.9208719112
 31
0.0
  0
LINE
  5
2BC
330
280
100
AcDbEntity
  8
0
  6
Continuous
 62
     7
370
    25
100
AcDbLine
 10
334.9337963371
 20
360.9090720046
 30
0.0
 11
409.1800083446
 21
426.3880762597
 31
0.0
  0
LINE
  5
2BD
330
280
100
AcDbEntity
  8
0
  6
Continuous
 62
     7
370
    25
100
AcDbLine
 10
409.1800083446
 20
426.3880762597
 30
0.0
 11
100.4932739256
 21
465.2789492068
 31
0.0
  0
LINE
  5
2BE
330
280
100
AcDbEntity
  8
0
  6
Continuous
 62
     7
370
    25
100
AcDbLine
 10
100.4932739256
 20
465.2789492068
 30
0.0
 11
26.2470619181
 21
399.7999449517
 31
0.0
  0
LINE
  5
2BF
330
280
100
AcDbEntity
  8
0
  6
Continuous
 62
     7
370
    25
100
AcDbLine
 10
26.2470619181
 20
399.7999449517
 30
0.0
 11
334.9337963371
 21
360.9090720046
 31
0.0
  0
LINE
  5
2C0
330
280
100
AcDbEntity
  8
0
  6
Continuous
 62
     7
370
    25
100
AcDbLine
 10
100.4932739256
 20
390.4458014916
 30
0.0
 11
100.4932739256
 21
465.2789492068
 31
0.0
  0
LINE
  5
2C1
330
280
100
AcDbEntity
  8
0
  6
Continuous
 62
     7
370
    25
100
AcDbLine
 10
40.5144433634
 20
34.3162612686
 30
0.0
 11
408.4557922538
 21
-12.0399913854
 31
0.0
  0
LINE
  5
2C2
330
280
100
AcDbEntity
  8
0
  6
Continuous
 62
     7
370
    25
100
AcDbLine
 10
40.5144433634
 20
219.4328072079
 30
0.0
 11
40.5144433634
 21
34.3162612686
 31
0.0
  0
LINE
  5
2C3
330
280
100
AcDbEntity
  8
0
  6
Continuous
 62
     7
370
    25
100
AcDbLine
 10
408.4557922538
 20
173.0765545539
 30
0.0
 11
419.5333345058
 21
182.8460285335
 31
0.0
  0
LINE
  5
2C4
330
280
100
AcDbEntity
  8
0
  6
Continuous
 62
     7
370
    25
100
AcDbLine
 10
9.9470964654
 20
227.9756166798
 30
0.0
 11
413.1106799035
 21
177.1817795883
 31
0.0
  0
LINE
  5
2C5
330
280
100
AcDbEntity
  8
0
  6
Continuous
 62
     7
370
    25
100
AcDbLine
 10
3.5244418631
 20
235.2582224656
 30
0.0
 11
9.9470964654
 21
227.9756166798
 31
0.0
  0
LINE
  5
2C6
330
280
100
AcDbEntity
  8
0
  6
Continuous
 62
     7
370
    25
100
AcDbLine
 10
408.4557922538
 20
173.0765545539
 30
0.0
 11
20.2588383633
 21
221.9847735631
 31
0.0
  0
LINE
  5
2C7
330
280
100
AcDbEntity
  8
0
  6
Continuous
 62
     7
370
    25
100
AcDbLine
 10
20.2588383633
 20
221.9847735631
 30
0.0
 11
9.9470964654
 21
227.9756166798
 31
0.0
  0
LINE
  5
2C8
330
280
100
AcDbEntity
  8
0
  6
Continuous
 62
     7
370
    25
100
AcDbLine
 10
419.5334280473
 20
182.8460167484
 30
0.0
 11
408.4557922538
 21
173.076460273
 31
0.0
  0
LINE
  5
2C9
330
280
100
AcDbEntity
  8
0
  6
Continuous
 62
     7
370
    25
100
AcDbLine
 10
420.5939946773
 20
182.7123979127
 30
0.0
 11
420.5939946773
 21
-51.9208175225
 31
0.0
  0
LINE
  5
2CA
330
280
100
AcDbEntity
  8
0
  6
Continuous
 62
     7
370
    25
100
AcDbLine
 10
413.1106799035
 20
-43.4355361485
 30
0.0
 11
420.5939946773
 21
-51.9208175225
 31
0.0
  0
LINE
  5
2CB
330
280
100
AcDbEntity
  8
0
  6
Continuous
 62
     7
370
    25
100
AcDbLine
 10
413.1106799035
 20
177.1816853074
 30
0.0
 11
413.1106799035
 21
-43.4355361485
 31
0.0
  0
LINE
  5
2CC
330
280
100
AcDbEntity
  8
0
  6
Continuous
 62
     7
370
    25
100
AcDbLine
 10
507.9216821338
 20
258.9116059922
 30
0.0
 11
507.9216821338
 21
25.0949636728
 31
0.0
  0
LINE
  5
2CD
330
280
100
AcDbEntity
  8
0
  6
Continuous
 62
     7
370
    25
100
AcDbLine
 10
420.5939946773
 20
-51.9208175225
 30
0.0
 11
507.9216821338
 21
25.0949636728
 31
0.0
  0
LINE
  5
2CE
330
280
100
AcDbEntity
  8
0
  6
Continuous
 62
     7
370
    25
100
AcDbLine
 10
408.4557922538
 20
-32.4557222362
 30
0.0
 11
408.4557922538
 21
173.076460273
 31
0.0
  0
LINE
  5
2CF
330
280
100
AcDbEntity
  8
0
  6
Continuous
 62
     7
370
    25
100
AcDbLine
 10
20.2589319047
 20
221.984761778
 30
0.0
 11
20.2588383633
 21
221.9846792822
 31
0.0
  0
LINE
  5
2D0
330
280
100
AcDbEntity
  8
0
  6
Continuous
 62
     7
370
    25
100
AcDbLine
 10
20.2588383633
 20
221.9846792822
 30
0.0
 11
9.9470964654
 21
227.9755223989
 31
0.0
  0
LINE
  5
2D1
330
280
100
AcDbEntity
  8
0
  6
Continuous
 62
     7
370
    25
100
AcDbLine
 10
9.9470964654
 20
227.9755223989
 30
0.0
 11
3.5243483217
 21
235.2582342507
 31
0.0
  0
LINE
  5
2D2
330
280
100
AcDbEntity
  8
0
  6
Continuous
 62
     7
370
    25
100
AcDbLine
 10
20.2588383633
 20
221.9846792822
 30
0.0
 11
20.2588383633
 21
16.452496773
 31
0.0
  0
LINE
  5
2D3
330
280
100
AcDbEntity
  8
0
  6
Continuous
 62
     7
370
    25
100
AcDbLine
 10
9.9470964654
 20
7.358300943
 30
0.0
 11
9.9470964654
 21
227.9755223989
 31
0.0
  0
LINE
  5
2D4
330
280
100
AcDbEntity
  8
0
  6
Continuous
 62
     7
370
    25
100
AcDbLine
 10
2.4637816916
 20
0.7586376513
 30
0.0
 11
9.9470964654
 21
7.358300943
 31
0.0
  0
LINE
  5
2D5
330
280
100
AcDbEntity
  8
0
  6
Continuous
 62
     7
370
    25
100
AcDbLine
 10
2.4637816916
 20
235.3918530865
 30
0.0
 11
2.4637816916
 21
0.7586376513
 31
0.0
  0
LINE
  5
2D6
330
280
100
AcDbEntity
  8
0
  6
Continuous
 62
     7
370
    25
100
AcDbLine
 10
420.5939946773
 20
-51.9207232416
 30
0.0
 11
507.9216821338
 21
25.0950579537
 31
0.0
  0
LINE
  5
2D7
330
280
100
AcDbEntity
  8
0
  6
Continuous
 62
     7
370
    25
100
AcDbLine
 10
420.5939946773
 20
-51.9207232416
 30
0.0
 11
413.1106799035
 21
-43.4354418676
 31
0.0
  0
LINE
  5
2D8
330
280
100
AcDbEntity
  8
0
  6
Continuous
 62
     7
370
    25
100
AcDbLine
 10
408.4557922538
 20
-32.4557222362
 30
0.0
 11
413.1106799035
 21
-43.4354418676
 31
0.0
  0
LINE
  5
2D9
330
280
100
AcDbEntity
  8
0
  6
Continuous
 62
     7
370
    25
100
AcDbLine
 10
2.4637816916
 20
0.7587319322
 30
0.0
 11
420.5939946773
 21
-51.9207232416
 31
0.0
  0
LINE
  5
2DA
330
280
100
AcDbEntity
  8
0
  6
Continuous
 62
     7
370
    25
100
AcDbLine
 10
40.5144433634
 20
34.3162612686
 30
0.0
 11
2.4637816916
 21
0.7587319322
 31
0.0
  0
LINE
  5
2DB
330
280
100
AcDbEntity
  8
0
  6
Continuous
 62
     7
370
    25
100
AcDbLine
 10
413.1106799035
 20
-43.4354418676
 30
0.0
 11
9.9470964654
 21
7.3583952239
 31
0.0
  0
LINE
  5
2DC
330
280
100
AcDbEntity
  8
0
  6
Continuous
 62
     7
370
    25
100
AcDbLine
 10
20.2588383633
 20
16.452496773
 30
0.0
 11
408.4557922538
 21
-32.4557222362
 31
0.0
  0
VIEWPORT
  5
2ED
330
280
100
AcDbEntity
  8
0
100
AcDbViewport
 10
0.0
 20
0.0
 30
0.0
 40
205.6
 41
156.0
 68
     1
 69
     1
 12
225.5
 22
125.0
 13
0.0
 23
0.0
 14
10.0
 24
10.0
 15
10.0
 25
10.0
 16
0.0
 26
0.0
 36
1.0
 17
0.0
 27
0.0
 37
0.0
 42
50.0
 43
0.0
 44
0.0
 45
348.2684824903
 50
0.0
 51
0.0
 72
   100
 90
   557152
  1

281
     0
 71
     1
 74
     0
110
0.0
120
0.0
130
0.0
111
1.0
121
0.0
131
0.0
112
0.0
122
1.0
132
0.0
 79
     0
146
0.0
  0
ENDBLK
  5
283
330
280
100
AcDbEntity
  8
0
100
AcDbBlockEnd
  0
ENDSEC
  0
SECTION
  2
ENTITIES
  0
CIRCLE
  5
79
330
1F
100
AcDbEntity
  8
0
  6
Continuous
 62
     7
370
    25
100
AcDbCircle
 10
400.5
 20
125.0
 30
0.0
 40
17.49999999999989
  0
SPLINE
  5
7E
330
1F
100
AcDbEntity
  8
0
  6
Continuous
 62
     7
370
    25
100
AcDbSpline
210
0.0
220
0.0
230
1.0
 70
     8
 71
     3
 72
    16
 73
    12
 74
     0
 42
0.000000001
 43
0.00000001
 40
0.0
 40
0.0
 40
0.0
 40
0.0
 40
0.0037842664435231
 40
0.0037842664435231
 40
0.0662842664435231
 40
0.0662842664435231
 40
0.1287842664435231
 40
0.1287842664435231
 40
0.1912842664435231
 40
0.1912842664435231
 40
0.3162842664435231
 40
0.3162842664435231
 40
0.3162842664435231
 40
0.3162842664435231
 10
197.7103442438952
 20
154.0371703223196
 30
0.0
 10
197.7876295859938
 20
154.0046737679677
 30
0.0
 10
197.8647221600783
 20
153.9718941723924
 30
0.0
 10
199.2116219688603
 20
153.3928240665462
 30
0.0
 10
200.4281017082578
 20
152.770442253603
 30
0.0
 10
202.7326466961046
 20
151.402302388618
 30
0.0
 10
203.8207152085391
 20
150.6566462793389
 30
0.0
 10
205.8560691712954
 20
149.0736900359905
 30
0.0
 10
206.8033906154855
 20
148.2364733805387
 30
0.0
 10
209.4282945063953
 20
145.6339358712047
 30
0.0
 10
210.886366275326
 20
143.7799603570257
 30
0.0
 10
212.0753368635612
 20
141.9115780040845
 30
0.0
  0
SPLINE
  5
7F
330
1F
100
AcDbEntity
  8
0
  6
Continuous
 62
     7
370
    25
100
AcDbSpline
210
0.0
220
0.0
230
1.0
 70
     8
 71
     3
 72
    16
 73
    12
 74
     0
 42
0.000000001
 43
0.00000001
 40
0.3162842664435231
 40
0.3162842664435231
 40
0.3162842664435231
 40
0.3162842664435231
 40
0.3787842665566968
 40
0.3787842665566968
 40
0.4412842665566968
 40
0.4412842665566968
 40
0.5037842665566967
 40
0.5037842665566967
 40
0.5662842665566967
 40
0.5662842665566967
 40
0.6250000001131737
 40
0.6250000001131737
 40
0.6250000001131737
 40
0.6250000001131737
 10
177.0139276135535
 20
155.335401356369
 30
0.0
 10
178.3759827023474
 20
155.716424766676
 30
0.0
 10
179.7765229474012
 20
156.0088507683398
 30
0.0
 10
182.6180973624006
 20
156.4006632530619
 30
0.0
 10
184.0590170338803
 20
156.4999999999999
 30
0.0
 10
186.9409829661193
 20
156.5
 30
0.0
 10
188.3819026375991
 20
156.4006632530619
 30
0.0
 10
191.2234770525986
 20
156.0088507683398
 30
0.0
 10
192.6240172976524
 20
155.716424766676
 30
0.0
 10
195.2656574053721
 20
154.9774482517552
 30
0.0
 10
196.511204166893
 20
154.5413787482604
 30
0.0
 10
197.7103442438952
 20
154.0371703223196
 30
0.0
  0
SPLINE
  5
80
330
1F
100
AcDbEntity
  8
0
  6
Continuous
 62
     7
370
    25
100
AcDbSpline
210
0.0
220
0.0
230
1.0
 70
     8
 71
     3
 72
     8
 73
     4
 74
     0
 42
0.000000001
 43
0.00000001
 40
0.6250000001131717
 40
0.6250000001131717
 40
0.6250000001131717
 40
0.6250000001131717
 40
0.6875000007801293
 40
0.6875000007801293
 40
0.6875000007801293
 40
0.6875000007801293
 10
173.0583813451326
 20
153.9388342067689
 30
0.0
 10
174.3283846591258
 20
154.4848443469916
 30
0.0
 10
175.6518725247596
 20
154.954377946062
 30
0.0
 10
177.0139276135535
 20
155.335401356369
 30
0.0
  0
SPLINE
  5
81
330
1F
100
AcDbEntity
  8
0
  6
Continuous
 62
     7
370
    25
100
AcDbSpline
210
0.0
220
0.0
230
1.0
 70
     8
 71
     3
 72
    14
 73
    10
 74
     0
 42
0.000000001
 43
0.00000001
 40
0.6875000007801293
 40
0.6875000007801293
 40
0.6875000007801293
 40
0.6875000007801293
 40
0.8125000007801293
 40
0.8125000007801293
 40
0.8750000007801293
 40
0.8750000007801293
 40
0.9375000007801293
 40
0.9375000007801293
 40
1.0
 40
1.0
 40
1.0
 40
1.0
 10
158.9246631364385
 20
141.9115780040844
 30
0.0
 10
160.1136337246739
 20
143.7799603570256
 30
0.0
 10
161.5717054936046
 20
145.6339358712047
 30
0.0
 10
164.1966093845143
 20
148.2364733805386
 30
0.0
 10
165.1439308287043
 20
149.0736900359904
 30
0.0
 10
167.1792847914606
 20
150.6566462793388
 30
0.0
 10
168.2673533038951
 20
151.4023023886179
 30
0.0
 10
170.571898291742
 20
152.770442253603
 30
0.0
 10
171.7883780311394
 20
153.3928240665462
 30
0.0
 10
173.0583813451326
 20
153.9388342067689
 30
0.0
  0
SPLINE
  5
83
330
1F
100
AcDbEntity
  8
0
  6
Continuous
 62
     7
370
    25
100
AcDbSpline
210
0.0
220
0.0
230
1.0
 70
     8
 71
     3
 72
    12
 73
     8
 74
     0
 42
0.000000001
 43
0.00000001
 40
0.0
 40
0.0
 40
0.0
 40
0.0
 40
0.1249999999434612
 40
0.1249999999434612
 40
0.2499999999434618
 40
0.2499999999434618
 40
0.3749999999434623
 40
0.3749999999434623
 40
0.3749999999434623
 40
0.3749999999434623
 10
154.3321312451245
 20
129.5622316117066
 30
0.0
 10
154.5523847613028
 20
131.0669409884581
 30
0.0
 10
154.8809436303514
 20
132.5474893474243
 30
0.0
 10
155.7347373130923
 20
135.4173099021089
 30
0.0
 10
156.2598506271119
 20
136.8064784581366
 30
0.0
 10
157.4765757306807
 20
139.4591480092355
 30
0.0
 10
158.1680454893798
 20
140.7226074158492
 30
0.0
 10
158.9246631364385
 20
141.9115780040844
 30
0.0
  0
SPLINE
  5
84
330
1F
100
AcDbEntity
  8
0
  6
Continuous
 62
     7
370
    25
100
AcDbSpline
210
0.0
220
0.0
230
1.0
 70
     8
 71
     3
 72
    16
 73
    12
 74
     0
 42
0.000000001
 43
0.00000001
 40
0.3749999999434623
 40
0.3749999999434623
 40
0.3749999999434623
 40
0.3749999999434623
 40
0.4999999999434618
 40
0.4999999999434618
 40
0.6249999999434612
 40
0.6249999999434612
 40
0.7499999999434607
 40
0.7499999999434607
 40
0.8749999999434601
 40
0.8749999999434601
 40
1.0
 40
1.0
 40
1.0
 40
1.0
 10
158.9246631364385
 20
108.0884219959155
 30
0.0
 10
158.1680454893796
 20
109.2773925841508
 30
0.0
 10
157.4765757306807
 20
110.5408519907645
 30
0.0
 10
156.2598506271119
 20
113.1935215418634
 30
0.0
 10
155.7347373130922
 20
114.5826900978911
 30
0.0
 10
154.8809436303514
 20
117.4525106525757
 30
0.0
 10
154.5523847613027
 20
118.9330590115418
 30
0.0
 10
154.111877728946
 20
121.9424777650449
 30
0.0
 10
153.9999999999999
 20
123.471196392196
 30
0.0
 10
154.0
 20
126.528803607804
 30
0.0
 10
154.1118777289461
 20
128.0575222349551
 30
0.0
 10
154.3321312451245
 20
129.5622316117066
 30
0.0
  0
SPLINE
  5
86
330
1F
100
AcDbEntity
  8
0
  6
Continuous
 62
     7
370
    25
100
AcDbSpline
210
0.0
220
0.0
230
1.0
 70
     8
 71
     3
 72
    12
 73
     8
 74
     0
 42
0.000000001
 43
0.00000001
 40
0.0
 40
0.0
 40
0.0
 40
0.0
 40
0.1249999999501136
 40
0.1249999999501136
 40
0.2499999999501136
 40
0.2499999999501136
 40
0.3749999999501136
 40
0.3749999999501136
 40
0.3749999999501136
 40
0.3749999999501136
 10
216.6678687548754
 20
120.4377683882934
 30
0.0
 10
216.447615238697
 20
118.9330590115419
 30
0.0
 10
216.1190563696483
 20
117.4525106525757
 30
0.0
 10
215.2652626869075
 20
114.5826900978911
 30
0.0
 10
214.7401493728878
 20
113.1935215418633
 30
0.0
 10
213.5234242693191
 20
110.5408519907645
 30
0.0
 10
212.8319545106201
 20
109.2773925841508
 30
0.0
 10
212.0753368635612
 20
108.0884219959155
 30
0.0
  0
SPLINE
  5
87
330
1F
100
AcDbEntity
  8
0
  6
Continuous
 62
     7
370
    25
100
AcDbSpline
210
0.0
220
0.0
230
1.0
 70
     8
 71
     3
 72
    16
 73
    12
 74
     0
 42
0.000000001
 43
0.00000001
 40
0.3749999999501136
 40
0.3749999999501136
 40
0.3749999999501136
 40
0.3749999999501136
 40
0.4999999999501136
 40
0.4999999999501136
 40
0.6249999999501136
 40
0.6249999999501136
 40
0.7499999999501136
 40
0.7499999999501136
 40
0.8749999999501136
 40
0.8749999999501136
 40
1.0
 40
1.0
 40
1.0
 40
1.0
 10
212.0753368635612
 20
141.9115780040845
 30
0.0
 10
212.8319545106201
 20
140.7226074158492
 30
0.0
 10
213.5234242693191
 20
139.4591480092355
 30
0.0
 10
214.7401493728879
 20
136.8064784581366
 30
0.0
 10
215.2652626869075
 20
135.4173099021089
 30
0.0
 10
216.1190563696484
 20
132.5474893474243
 30
0.0
 10
216.447615238697
 20
131.0669409884581
 30
0.0
 10
216.8881222710538
 20
128.0575222349551
 30
0.0
 10
216.9999999999998
 20
126.528803607804
 30
0.0
 10
216.9999999999998
 20
123.471196392196
 30
0.0
 10
216.8881222710538
 20
121.9424777650449
 30
0.0
 10
216.6678687548754
 20
120.4377683882934
 30
0.0
  0
SPLINE
  5
88
330
1F
100
AcDbEntity
  8
0
  6
Continuous
 62
     7
370
    25
100
AcDbSpline
210
0.0
220
0.0
230
1.0
 70
     8
 71
     3
 72
    16
 73
    12
 74
     0
 42
0.000000001
 43
0.00000001
 40
0.0
 40
0.0
 40
0.0
 40
0.0
 40
0.0037842664437422
 40
0.0037842664437422
 40
0.0662842664437422
 40
0.0662842664437422
 40
0.1287842664437422
 40
0.1287842664437422
 40
0.1912842664437422
 40
0.1912842664437422
 40
0.3162842664437432
 40
0.3162842664437432
 40
0.3162842664437432
 40
0.3162842664437432
 10
173.2896557561181
 20
95.9628296776749
 30
0.0
 10
173.212370414015
 20
95.99532623202863
 30
0.0
 10
173.1352778399259
 20
96.02810582760576
 30
0.0
 10
171.7883780311395
 20
96.60717593345386
 30
0.0
 10
170.571898291742
 20
97.22955774639702
 30
0.0
 10
168.2673533038951
 20
98.5976976113821
 30
0.0
 10
167.1792847914606
 20
99.34335372066117
 30
0.0
 10
165.1439308287044
 20
100.9263099640096
 30
0.0
 10
164.1966093845143
 20
101.7635266194614
 30
0.0
 10
161.5717054936046
 20
104.3660641287953
 30
0.0
 10
160.1136337246739
 20
106.2200396429744
 30
0.0
 10
158.9246631364385
 20
108.0884219959155
 30
0.0
  0
SPLINE
  5
89
330
1F
100
AcDbEntity
  8
0
  6
Continuous
 62
     7
370
    25
100
AcDbSpline
210
0.0
220
0.0
230
1.0
 70
     8
 71
     3
 72
    16
 73
    12
 74
     0
 42
0.000000001
 43
0.00000001
 40
0.3162842664437432
 40
0.3162842664437432
 40
0.3162842664437432
 40
0.3162842664437432
 40
0.3787842665582608
 40
0.3787842665582608
 40
0.4412842665582608
 40
0.4412842665582608
 40
0.5037842665582608
 40
0.5037842665582608
 40
0.5662842665582608
 40
0.5662842665582608
 40
0.6250000001145185
 40
0.6250000001145185
 40
0.6250000001145185
 40
0.6250000001145185
 10
193.9860723864463
 20
94.66459864363105
 30
0.0
 10
192.6240172976523
 20
94.28357523332414
 30
0.0
 10
191.2234770525986
 20
93.99114923166024
 30
0.0
 10
188.3819026375992
 20
93.59933674693815
 30
0.0
 10
186.9409829661193
 20
93.50000000000003
 30
0.0
 10
184.0590170338805
 20
93.50000000000003
 30
0.0
 10
182.6180973624006
 20
93.5993367469382
 30
0.0
 10
179.7765229474012
 20
93.99114923166024
 30
0.0
 10
178.3759827023474
 20
94.28357523332414
 30
0.0
 10
175.7343425946324
 20
95.02255174824354
 30
0.0
 10
174.4887958331161
 20
95.45862125173646
 30
0.0
 10
173.2896557561181
 20
95.9628296776749
 30
0.0
  0
SPLINE
  5
8A
330
1F
100
AcDbEntity
  8
0
  6
Continuous
 62
     7
370
    25
100
AcDbSpline
210
0.0
220
0.0
230
1.0
 70
     8
 71
     3
 72
     8
 73
     4
 74
     0
 42
0.000000001
 43
0.00000001
 40
0.6250000001145194
 40
0.6250000001145194
 40
0.6250000001145194
 40
0.6250000001145194
 40
0.6875000007814001
 40
0.6875000007814001
 40
0.6875000007814001
 40
0.6875000007814001
 10
197.9416186548672
 20
96.06116579323115
 30
0.0
 10
196.6716153408741
 20
95.51515565300845
 30
0.0
 10
195.3481274752402
 20
95.04562205393796
 30
0.0
 10
193.9860723864463
 20
94.66459864363105
 30
0.0
  0
SPLINE
  5
8B
330
1F
100
AcDbEntity
  8
0
  6
Continuous
 62
     7
370
    25
100
AcDbSpline
210
0.0
220
0.0
230
1.0
 70
     8
 71
     3
 72
    14
 73
    10
 74
     0
 42
0.000000001
 43
0.00000001
 40
0.6875000007814001
 40
0.6875000007814001
 40
0.6875000007814001
 40
0.6875000007814001
 40
0.812500000781399
 40
0.812500000781399
 40
0.875000000781399
 40
0.875000000781399
 40
0.9375000007813991
 40
0.9375000007813991
 40
1.0
 40
1.0
 40
1.0
 40
1.0
 10
212.0753368635612
 20
108.0884219959155
 30
0.0
 10
210.886366275326
 20
106.2200396429744
 30
0.0
 10
209.4282945063953
 20
104.3660641287953
 30
0.0
 10
206.8033906154855
 20
101.7635266194614
 30
0.0
 10
205.8560691712953
 20
100.9263099640095
 30
0.0
 10
203.8207152085391
 20
99.34335372066111
 30
0.0
 10
202.7326466961048
 20
98.5976976113821
 30
0.0
 10
200.4281017082578
 20
97.22955774639702
 30
0.0
 10
199.2116219688603
 20
96.60717593345386
 30
0.0
 10
197.9416186548672
 20
96.06116579323115
 30
0.0
  0
CIRCLE
  5
8C
330
1F
100
AcDbEntity
  8
0
  6
Continuous
 62
     7
370
    25
100
AcDbCircle
 10
185.5
 20
125.0
 30
0.0
 40
22.49999999999989
  0
LINE
  5
8E
330
1F
100
AcDbEntity
  8
0
  6
Continuous
 62
     7
370
    25
100
AcDbLine
 10
450.5
 20
250.0
 30
0.0
 11
0.5
 21
250.0
 31
0.0
  0
LINE
  5
8F
330
1F
100
AcDbEntity
  8
0
  6
Continuous
 62
     7
370
    25
100
AcDbLine
 10
0.5
 20
250.0
 30
0.0
 11
0.5
 21
0.0
 31
0.0
  0
LINE
  5
90
330
1F
100
AcDbEntity
  8
0
  6
Continuous
 62
     7
370
    25
100
AcDbLine
 10
20.5
 20
20.0
 30
0.0
 11
350.5
 21
20.0
 31
0.0
  0
LINE
  5
91
330
1F
100
AcDbEntity
  8
0
  6
Continuous
 62
     7
370
    25
100
AcDbLine
 10
20.5
 20
230.0
 30
0.0
 11
20.5
 21
20.0
 31
0.0
  0
LINE
  5
92
330
1F
100
AcDbEntity
  8
0
  6
Continuous
 62
     7
370
    25
100
AcDbLine
 10
450.5
 20
0.0
 30
0.0
 11
450.5
 21
250.0
 31
0.0
  0
LINE
  5
93
330
1F
100
AcDbEntity
  8
0
  6
Continuous
 62
     7
370
    25
100
AcDbLine
 10
0.5
 20
0.0
 30
0.0
 11
450.5
 21
0.0
 31
0.0
  0
LINE
  5
94
330
1F
100
AcDbEntity
  8
0
  6
Continuous
 62
     7
370
    25
100
AcDbLine
 10
350.5
 20
230.0
 30
0.0
 11
20.5
 21
230.0
 31
0.0
  0
LINE
  5
95
330
1F
100
AcDbEntity
  8
0
  6
Continuous
 62
     7
370
    25
100
AcDbLine
 10
350.5
 20
20.0
 30
0.0
 11
350.5
 21
230.0
 31
0.0
  0
LINE
  5
96
330
1F
100
AcDbEntity
  8
0
  6
Continuous
 62
     7
370
    25
100
AcDbLine
 10
158.9246631364
 20
141.9115780041
 30
0.0
 11
20.5
 21
230.0
 31
0.0
  0
LINE
  5
97
330
1F
100
AcDbEntity
  8
0
  6
Continuous
 62
     7
370
    25
100
AcDbLine
 10
212.0753368636
 20
141.9115780041
 30
0.0
 11
350.5
 21
230.0
 31
0.0
  0
LINE
  5
98
330
1F
100
AcDbEntity
  8
0
  6
Continuous
 62
     7
370
    25
100
AcDbLine
 10
20.5
 20
20.0
 30
0.0
 11
158.9246631364
 21
108.0884219959
 31
0.0
  0
LINE
  5
99
330
1F
100
AcDbEntity
  8
0
  6
Continuous
 62
     7
370
    25
100
AcDbLine
 10
212.0753368636
 20
108.0884219959
 30
0.0
 11
350.5
 21
20.0
 31
0.0
  0
LINE
  5
9A
330
1F
100
AcDbEntity
  8
0
  6
Continuous
 62
     7
370
    25
100
AcDbLine
 10
413.5
 20
113.2846254861
 30
0.0
 11
413.5
 21
136.7153745139
 31
0.0
  0
LINE
  5
BE
330
1B
100
AcDbEntity
 67
     1
  8
0
  6
Continuous
 62
     7
370
    25
100
AcDbLine
 10
0.5
 20
420.0
 30
0.0
 11
450.5
 21
420.0
 31
0.0
  0
LINE
  5
BF
330
1B
100
AcDbEntity
 67
     1
  8
0
  6
Continuous
 62
     7
370
    25
100
AcDbLine
 10
0.5
 20
420.0
 30
0.0
 11
0.5
 21
250.0
 31
0.0
  0
LINE
  5
C0
330
1B
100
AcDbEntity
 67
     1
  8
0
  6
Continuous
 62
     7
370
    25
100
AcDbLine
 10
450.5
 20
420.0
 30
0.0
 11
450.5
 21
250.0
 31
0.0
  0
LINE
  5
C1
330
1B
100
AcDbEntity
 67
     1
  8
0
  6
Continuous
 62
     7
370
    25
100
AcDbLine
 10
0.5
 20
250.0
 30
0.0
 11
450.5
 21
250.0
 31
0.0
  0
LINE
  5
C2
330
1B
100
AcDbEntity
 67
     1
  8
0
  6
Continuous
 62
     7
370
    25
100
AcDbLine
 10
430.5
 20
232.0
 30
0.0
 11
19.5
 21
232.0
 31
0.0
  0
LINE
  5
C3
330
1B
100
AcDbEntity
 67
     1
  8
0
  6
Continuous
 62
     7
370
    25
100
AcDbLine
 10
430.5
 20
18.0001
 30
0.0
 11
430.5
 21
232.0
 31
0.0
  0
LINE
  5
C4
330
1B
100
AcDbEntity
 67
     1
  8
0
  6
Continuous
 62
     7
370
    25
100
AcDbLine
 10
19.5
 20
18.0001
 30
0.0
 11
430.5
 21
18.0001
 31
0.0
  0
LINE
  5
C5
330
1B
100
AcDbEntity
 67
     1
  8
0
  6
Continuous
 62
     7
370
    25
100
AcDbLine
 10
19.5
 20
232.0
 30
0.0
 11
19.5
 21
18.0001
 31
0.0
  0
LINE
  5
C6
330
1B
100
AcDbEntity
 67
     1
  8
0
  6
Continuous
 62
     7
370
    25
100
AcDbLine
 10
12.5
 20
239.0
 30
0.0
 11
12.5
 21
238.9999
 31
0.0
  0
LINE
  5
C7
330
1B
100
AcDbEntity
 67
     1
  8
0
  6
Continuous
 62
     7
370
    25
100
AcDbLine
 10
437.5
 20
239.0
 30
0.0
 11
437.5
 21
238.9999
 31
0.0
  0
LINE
  5
C8
330
1B
100
AcDbEntity
 67
     1
  8
0
  6
Continuous
 62
     7
370
    25
100
AcDbLine
 10
9.5
 20
242.0
 30
0.0
 11
440.5
 21
242.0
 31
0.0
  0
LINE
  5
C9
330
1B
100
AcDbEntity
 67
     1
  8
0
  6
Continuous
 62
     7
370
    25
100
AcDbLine
 10
432.5
 20
234.0
 30
0.0
 11
448.5
 21
250.0
 31
0.0
  0
LINE
  5
CA
330
1B
100
AcDbEntity
 67
     1
  8
0
  6
Continuous
 62
     7
370
    25
100
AcDbLine
 10
432.5
 20
234.0
 30
0.0
 11
17.5
 21
234.0
 31
0.0
  0
LINE
  5
CB
330
1B
100
AcDbEntity
 67
     1
  8
0
  6
Continuous
 62
     7
370
    25
100
AcDbLine
 10
1.5
 20
250.0
 30
0.0
 11
17.5
 21
234.0
 31
0.0
  0
LINE
  5
CC
330
1B
100
AcDbEntity
 67
     1
  8
0
  6
Continuous
 62
     7
370
    25
100
AcDbLine
 10
448.5
 20
249.9999
 30
0.0
 11
432.5
 21
233.9999
 31
0.0
  0
LINE
  5
CD
330
1B
100
AcDbEntity
 67
     1
  8
0
  6
Continuous
 62
     7
370
    25
100
AcDbLine
 10
440.5
 20
241.9999
 30
0.0
 11
440.5
 21
8.0
 31
0.0
  0
LINE
  5
CE
330
1B
100
AcDbEntity
 67
     1
  8
0
  6
Continuous
 62
     7
370
    25
100
AcDbLine
 10
432.5
 20
16.0001
 30
0.0
 11
432.5
 21
233.9999
 31
0.0
  0
LINE
  5
CF
330
1B
100
AcDbEntity
 67
     1
  8
0
  6
Continuous
 62
     7
370
    25
100
AcDbLine
 10
448.5
 20
249.9999
 30
0.0
 11
448.5
 21
0.0
 31
0.0
  0
LINE
  5
D0
330
1B
100
AcDbEntity
 67
     1
  8
0
  6
Continuous
 62
     7
370
    25
100
AcDbLine
 10
440.5
 20
8.0
 30
0.0
 11
448.5
 21
0.0
 31
0.0
  0
LINE
  5
D1
330
1B
100
AcDbEntity
 67
     1
  8
0
  6
Continuous
 62
     7
370
    25
100
AcDbLine
 10
17.5
 20
233.9999
 30
0.0
 11
1.5
 21
249.9999
 31
0.0
  0
LINE
  5
D2
330
1B
100
AcDbEntity
 67
     1
  8
0
  6
Continuous
 62
     7
370
    25
100
AcDbLine
 10
9.5
 20
8.0
 30
0.0
 11
9.5
 21
241.9999
 31
0.0
  0
LINE
  5
D3
330
1B
100
AcDbEntity
 67
     1
  8
0
  6
Continuous
 62
     7
370
    25
100
AcDbLine
 10
1.5
 20
249.9999
 30
0.0
 11
1.5
 21
0.0
 31
0.0
  0
LINE
  5
D4
330
1B
100
AcDbEntity
 67
     1
  8
0
  6
Continuous
 62
     7
370
    25
100
AcDbLine
 10
1.5
 20
0.0
 30
0.0
 11
9.5
 21
8.0
 31
0.0
  0
LINE
  5
D5
330
1B
100
AcDbEntity
 67
     1
  8
0
  6
Continuous
 62
     7
370
    25
100
AcDbLine
 10
17.5
 20
233.9999
 30
0.0
 11
17.5
 21
16.0001
 31
0.0
  0
LINE
  5
D6
330
1B
100
AcDbEntity
 67
     1
  8
0
  6
Continuous
 62
     7
370
    25
100
AcDbLine
 10
17.5
 20
16.0001
 30
0.0
 11
432.5
 21
16.0001
 31
0.0
  0
LINE
  5
D7
330
1B
100
AcDbEntity
 67
     1
  8
0
  6
Continuous
 62
     7
370
    25
100
AcDbLine
 10
432.5
 20
16.0001
 30
0.0
 11
448.5
 21
0.0001
 31
0.0
  0
LINE
  5
D8
330
1B
100
AcDbEntity
 67
     1
  8
0
  6
Continuous
 62
     7
370
    25
100
AcDbLine
 10
440.5
 20
8.0001
 30
0.0
 11
9.5
 21
8.0001
 31
0.0
  0
LINE
  5
D9
330
1B
100
AcDbEntity
 67
     1
  8
0
  6
Continuous
 62
     7
370
    25
100
AcDbLine
 10
17.5
 20
16.0001
 30
0.0
 11
1.5
 21
0.0001
 31
0.0
  0
LINE
  5
DA
330
1B
100
AcDbEntity
 67
     1
  8
0
  6
Continuous
 62
     7
370
    25
100
AcDbLine
 10
1.5
 20
0.0001
 30
0.0
 11
448.5
 21
0.0001
 31
0.0
  0
VIEWPORT
  5
2DD
330
1B
100
AcDbEntity
 67
     1
  8
0
100
AcDbViewport
 10
0.0
 20
0.0
 30
0.0
 40
205.6
 41
156.0
 68
     1
 69
     1
 12
225.5
 22
125.0
 13
0.0
 23
0.0
 14
10.0
 24
10.0
 15
10.0
 25
10.0
 16
0.0
 26
0.0
 36
1.0
 17
0.0
 27
0.0
 37
0.0
 42
50.0
 43
0.0
 44
0.0
 45
348.2684824903
 50
0.0
 51
0.0
 72
   100
 90
   557152
  1

281
     0
 71
     1
 74
     0
110
0.0
120
0.0
130
0.0
111
1.0
121
0.0
131
0.0
112
0.0
122
1.0
132
0.0
 79
     0
146
0.0
  0
ENDSEC
  0
SECTION
  2
OBJECTS
  0
DICTIONARY
  5
C
330
0
100
AcDbDictionary
281
     1
  3
ACAD_GROUP
350
D
  3
ACAD_LAYOUT
350
1A
  3
ACAD_MLINESTYLE
350
17
  3
ACAD_PLOTSETTINGS
350
19
  3
ACAD_PLOTSTYLENAME
350
E
  3
ACAD_SCALELIST
350
47
  0
DICTIONARY
  5
D
102
{ACAD_REACTORS
330
C
102
}
330
C
100
AcDbDictionary
281
     1
  0
DICTIONARY
  5
1A
102
{ACAD_REACTORS
330
C
102
}
330
C
100
AcDbDictionary
281
     1
  3
_Dimetrisch
350
281
  3
_Isometrisch
350
1B3
  3
_Links
350
184
  3
_Normal auf
350
EF
  3
_Rechts
350
26
  3
_Rückseite
350
133
  3
_Trimetrisch
350
216
  3
_Unten
350
19B
  3
_Vorderseite
350
1E
  3
Model
350
22
  0
DICTIONARY
  5
17
102
{ACAD_REACTORS
330
C
102
}
330
C
100
AcDbDictionary
281
     1
  3
Standard
350
18
  0
DICTIONARY
  5
19
102
{ACAD_REACTORS
330
C
102
}
330
C
100
AcDbDictionary
281
     1
  0
ACDBDICTIONARYWDFLT
  5
E
102
{ACAD_REACTORS
330
C
102
}
330
C
100
AcDbDictionary
281
     1
  3
Normal
350
F
100
AcDbDictionaryWithDefault
340
F
  0
DICTIONARY
  5
47
102
{ACAD_REACTORS
330
C
102
}
330
C
100
AcDbDictionary
281
     1
  3
A0
350
48
  3
A1
350
49
  3
A2
350
4A
  3
A3
350
4B
  3
A4
350
4C
  3
A5
350
4D
  3
A6
350
4E
  3
A7
350
4F
  3
A8
350
50
  3
A9
350
51
  3
B0
350
52
  3
B1
350
53
  3
B2
350
54
  3
B3
350
55
  3
B4
350
56
  3
B5
350
57
  3
B6
350
58
  3
B7
350
59
  3
B8
350
5A
  3
B9
350
5B
  3
C0
350
5C
  3
C1
350
5D
  3
C2
350
5E
  3
C3
350
5F
  3
C4
350
60
  3
C5
350
61
  3
C6
350
62
  3
C7
350
63
  3
C8
350
64
  3
C9
350
65
  3
D0
350
66
  3
D1
350
67
  3
D2
350
68
  0
LAYOUT
  5
281
102
{ACAD_REACTORS
330
1A
102
}
330
1A
100
AcDbPlotSettings
  1

  2
none_device
  4
ISO_A4_(210.00_x_297.00_MM)
  6

 40
7.5
 41
20.0
 42
7.5
 43
20.0
 44
210.0
 45
297.0
 46
0.0
 47
0.0
 48
0.0
 49
0.0
140
0.0
141
0.0
142
1.0
143
2.1538461538
 70
   688
 72
     1
 73
     1
 74
     1
  7

 75
     0
147
0.4642857143
148
-0.5
149
0.0
100
AcDbLayout
  1
_Dimetrisch
 70
     1
 71
     9
 10
0.0
 20
0.0
 11
0.0
 21
0.0
 12
0.0
 22
0.0
 32
0.0
 14
0.0
 24
0.0
 34
0.0
 15
0.0
 25
0.0
 35
0.0
146
0.0
 13
0.0
 23
0.0
 33
0.0
 16
1.0
 26
0.0
 36
0.0
 17
0.0
 27
1.0
 37
0.0
 76
     0
330
280
331
2ED
  0
LAYOUT
  5
1B3
102
{ACAD_REACTORS
330
1A
102
}
330
1A
100
AcDbPlotSettings
  1

  2
none_device
  4
ISO_A4_(210.00_x_297.00_MM)
  6

 40
7.5
 41
20.0
 42
7.5
 43
20.0
 44
210.0
 45
297.0
 46
0.0
 47
0.0
 48
0.0
 49
0.0
140
0.0
141
0.0
142
1.0
143
2.1538461538
 70
   688
 72
     1
 73
     1
 74
     1
  7

 75
     0
147
0.4642857143
148
-0.5
149
0.0
100
AcDbLayout
  1
_Isometrisch
 70
     1
 71
     7
 10
0.0
 20
0.0
 11
0.0
 21
0.0
 12
0.0
 22
0.0
 32
0.0
 14
0.0
 24
0.0
 34
0.0
 15
0.0
 25
0.0
 35
0.0
146
0.0
 13
0.0
 23
0.0
 33
0.0
 16
1.0
 26
0.0
 36
0.0
 17
0.0
 27
1.0
 37
0.0
 76
     0
330
1B2
331
2E9
  0
LAYOUT
  5
184
102
{ACAD_REACTORS
330
1A
102
}
330
1A
100
AcDbPlotSettings
  1

  2
none_device
  4
ISO_A4_(210.00_x_297.00_MM)
  6

 40
7.5
 41
20.0
 42
7.5
 43
20.0
 44
210.0
 45
297.0
 46
0.0
 47
0.0
 48
0.0
 49
0.0
140
0.0
141
0.0
142
1.0
143
2.1538461538
 70
   688
 72
     1
 73
     1
 74
     1
  7

 75
     0
147
0.4642857143
148
-0.5
149
0.0
100
AcDbLayout
  1
_Links
 70
     1
 71
     5
 10
0.0
 20
0.0
 11
0.0
 21
0.0
 12
0.0
 22
0.0
 32
0.0
 14
0.0
 24
0.0
 34
0.0
 15
0.0
 25
0.0
 35
0.0
146
0.0
 13
0.0
 23
0.0
 33
0.0
 16
1.0
 26
0.0
 36
0.0
 17
0.0
 27
1.0
 37
0.0
 76
     0
330
183
331
2E5
  0
LAYOUT
  5
EF
102
{ACAD_REACTORS
330
1A
102
}
330
1A
100
AcDbPlotSettings
  1

  2
none_device
  4
ISO_A4_(210.00_x_297.00_MM)
  6

 40
7.5
 41
20.0
 42
7.5
 43
20.0
 44
210.0
 45
297.0
 46
0.0
 47
0.0
 48
0.0
 49
0.0
140
0.0
141
0.0
142
1.0
143
2.1538461538
 70
   688
 72
     1
 73
     1
 74
     1
  7

 75
     0
147
0.4642857143
148
-0.5
149
0.0
100
AcDbLayout
  1
_Normal auf
 70
     1
 71
     3
 10
0.0
 20
0.0
 11
0.0
 21
0.0
 12
0.0
 22
0.0
 32
0.0
 14
0.0
 24
0.0
 34
0.0
 15
0.0
 25
0.0
 35
0.0
146
0.0
 13
0.0
 23
0.0
 33
0.0
 16
1.0
 26
0.0
 36
0.0
 17
0.0
 27
1.0
 37
0.0
 76
     0
330
EE
331
2E1
  0
LAYOUT
  5
26
102
{ACAD_REACTORS
330
1A
102
}
330
1A
100
AcDbPlotSettings
  1

  2
none_device
  4
ISO_A4_(210.00_x_297.00_MM)
  6

 40
7.5
 41
20.0
 42
7.5
 43
20.0
 44
210.0
 45
297.0
 46
0.0
 47
0.0
 48
0.0
 49
0.0
140
0.0
141
0.0
142
1.0
143
2.1538461538
 70
   688
 72
     1
 73
     1
 74
     1
  7

 75
     0
147
0.4642857143
148
-0.5
149
0.0
100
AcDbLayout
  1
_Rechts
 70
     1
 71
     2
 10
0.0
 20
0.0
 11
0.0
 21
0.0
 12
0.0
 22
0.0
 32
0.0
 14
0.0
 24
0.0
 34
0.0
 15
0.0
 25
0.0
 35
0.0
146
0.0
 13
0.0
 23
0.0
 33
0.0
 16
1.0
 26
0.0
 36
0.0
 17
0.0
 27
1.0
 37
0.0
 76
     0
330
23
331
2DF
  0
LAYOUT
  5
133
102
{ACAD_REACTORS
330
1A
102
}
330
1A
100
AcDbPlotSettings
  1

  2
none_device
  4
ISO_A4_(210.00_x_297.00_MM)
  6

 40
7.5
 41
20.0
 42
7.5
 43
20.0
 44
210.0
 45
297.0
 46
0.0
 47
0.0
 48
0.0
 49
0.0
140
0.0
141
0.0
142
1.0
143
2.1538461538
 70
   688
 72
     1
 73
     1
 74
     1
  7

 75
     0
147
0.4642857143
148
-0.5
149
0.0
100
AcDbLayout
  1
_Rückseite
 70
     1
 71
     4
 10
0.0
 20
0.0
 11
0.0
 21
0.0
 12
0.0
 22
0.0
 32
0.0
 14
0.0
 24
0.0
 34
0.0
 15
0.0
 25
0.0
 35
0.0
146
0.0
 13
0.0
 23
0.0
 33
0.0
 16
1.0
 26
0.0
 36
0.0
 17
0.0
 27
1.0
 37
0.0
 76
     0
330
132
331
2E3
  0
LAYOUT
  5
216
102
{ACAD_REACTORS
330
1A
102
}
330
1A
100
AcDbPlotSettings
  1

  2
none_device
  4
ISO_A4_(210.00_x_297.00_MM)
  6

 40
7.5
 41
20.0
 42
7.5
 43
20.0
 44
210.0
 45
297.0
 46
0.0
 47
0.0
 48
0.0
 49
0.0
140
0.0
141
0.0
142
1.0
143
2.1538461538
 70
   688
 72
     1
 73
     1
 74
     1
  7

 75
     0
147
0.4642857143
148
-0.5
149
0.0
100
AcDbLayout
  1
_Trimetrisch
 70
     1
 71
     8
 10
0.0
 20
0.0
 11
0.0
 21
0.0
 12
0.0
 22
0.0
 32
0.0
 14
0.0
 24
0.0
 34
0.0
 15
0.0
 25
0.0
 35
0.0
146
0.0
 13
0.0
 23
0.0
 33
0.0
 16
1.0
 26
0.0
 36
0.0
 17
0.0
 27
1.0
 37
0.0
 76
     0
330
215
331
2EB
  0
LAYOUT
  5
19B
102
{ACAD_REACTORS
330
1A
102
}
330
1A
100
AcDbPlotSettings
  1

  2
none_device
  4
ISO_A4_(210.00_x_297.00_MM)
  6

 40
7.5
 41
20.0
 42
7.5
 43
20.0
 44
210.0
 45
297.0
 46
0.0
 47
0.0
 48
0.0
 49
0.0
140
0.0
141
0.0
142
1.0
143
2.1538461538
 70
   688
 72
     1
 73
     1
 74
     1
  7

 75
     0
147
0.4642857143
148
-0.5
149
0.0
100
AcDbLayout
  1
_Unten
 70
     1
 71
     6
 10
0.0
 20
0.0
 11
0.0
 21
0.0
 12
0.0
 22
0.0
 32
0.0
 14
0.0
 24
0.0
 34
0.0
 15
0.0
 25
0.0
 35
0.0
146
0.0
 13
0.0
 23
0.0
 33
0.0
 16
1.0
 26
0.0
 36
0.0
 17
0.0
 27
1.0
 37
0.0
 76
     0
330
19A
331
2E7
  0
LAYOUT
  5
1E
102
{ACAD_REACTORS
330
1A
102
}
330
1A
100
AcDbPlotSettings
  1

  2
none_device
  4
ISO_A4_(210.00_x_297.00_MM)
  6

 40
7.5
 41
20.0
 42
7.5
 43
20.0
 44
210.0
 45
297.0
 46
0.0
 47
0.0
 48
0.0
 49
0.0
140
0.0
141
0.0
142
1.0
143
2.1538461538
 70
   688
 72
     1
 73
     1
 74
     1
  7

 75
     0
147
0.4642857143
148
-0.5
149
0.0
100
AcDbLayout
  1
_Vorderseite
 70
     1
 71
     1
 10
-42.5769230769
 20
-16.1538461538
 11
597.1153846154
 21
436.1538461538
 12
0.0
 22
0.0
 32
0.0
 14
0.5
 24
0.0
 34
0.0
 15
450.5
 25
420.0
 35
0.0
146
0.0
 13
0.0
 23
0.0
 33
0.0
 16
1.0
 26
0.0
 36
0.0
 17
0.0
 27
1.0
 37
0.0
 76
     0
330
1B
331
2DD
  0
LAYOUT
  5
22
102
{ACAD_REACTORS
330
1A
102
}
330
1A
100
AcDbPlotSettings
  1

  2
none_device
  4
ANSI_A_(11.00_x_8.50_Inches)
  6

 40
6.35
 41
19.05
 42
6.35000508
 43
19.05000254
 44
279.4
 45
215.9
 46
-5.26034254
 47
12.06499873
 48
0.0
 49
0.0
140
0.0
141
0.0
142
0.0242
143
1.0
 70
  1696
 72
     0
 73
     0
 74
     0
  7

 75
     0
147
0.0179189148
148
-1300.4909072572
149
0.0
100
AcDbLayout
  1
Model
 70
     1
 71
     0
 10
0.0
 20
0.0
 11
420.0
 21
297.0
 12
0.0
 22
0.0
 32
0.0
 14
0.5
 24
0.0
 34
0.0
 15
450.5
 25
250.0
 35
0.0
146
0.0
 13
0.0
 23
0.0
 33
0.0
 16
1.0
 26
0.0
 36
0.0
 17
0.0
 27
1.0
 37
0.0
 76
     0
330
1F
331
29
  0
MLINESTYLE
  5
18
102
{ACAD_REACTORS
330
17
102
}
330
17
100
AcDbMlineStyle
  2
Standard
 70
     0
  3

 62
   256
 51
90.0
 52
90.0
 71
     2
 49
0.5
 62
   256
  6
BYLAYER
 49
-0.5
 62
   256
  6
BYLAYER
  0
ACDBPLACEHOLDER
  5
F
102
{ACAD_REACTORS
330
E
102
}
330
E
  0
SCALE
  5
48
102
{ACAD_REACTORS
330
47
102
}
330
47
100
AcDbScale
 70
     0
300
1:1
140
1.0
141
1.0
290
     1
  0
SCALE
  5
49
102
{ACAD_REACTORS
330
47
102
}
330
47
100
AcDbScale
 70
     0
300
1:2
140
1.0
141
2.0
290
     0
  0
SCALE
  5
4A
102
{ACAD_REACTORS
330
47
102
}
330
47
100
AcDbScale
 70
     0
300
1:4
140
1.0
141
4.0
290
     0
  0
SCALE
  5
4B
102
{ACAD_REACTORS
330
47
102
}
330
47
100
AcDbScale
 70
     0
300
1:5
140
1.0
141
5.0
290
     0
  0
SCALE
  5
4C
102
{ACAD_REACTORS
330
47
102
}
330
47
100
AcDbScale
 70
     0
300
1:8
140
1.0
141
8.0
290
     0
  0
SCALE
  5
4D
102
{ACAD_REACTORS
330
47
102
}
330
47
100
AcDbScale
 70
     0
300
1:10
140
1.0
141
10.0
290
     0
  0
SCALE
  5
4E
102
{ACAD_REACTORS
330
47
102
}
330
47
100
AcDbScale
 70
     0
300
1:16
140
1.0
141
16.0
290
     0
  0
SCALE
  5
4F
102
{ACAD_REACTORS
330
47
102
}
330
47
100
AcDbScale
 70
     0
300
1:20
140
1.0
141
20.0
290
     0
  0
SCALE
  5
50
102
{ACAD_REACTORS
330
47
102
}
330
47
100
AcDbScale
 70
     0
300
1:30
140
1.0
141
30.0
290
     0
  0
SCALE
  5
51
102
{ACAD_REACTORS
330
47
102
}
330
47
100
AcDbScale
 70
     0
300
1:40
140
1.0
141
40.0
290
     0
  0
SCALE
  5
52
102
{ACAD_REACTORS
330
47
102
}
330
47
100
AcDbScale
 70
     0
300
1:50
140
1.0
141
50.0
290
     0
  0
SCALE
  5
53
102
{ACAD_REACTORS
330
47
102
}
330
47
100
AcDbScale
 70
     0
300
1:100
140
1.0
141
100.0
290
     0
  0
SCALE
  5
54
102
{ACAD_REACTORS
330
47
102
}
330
47
100
AcDbScale
 70
     0
300
2:1
140
2.0
141
1.0
290
     0
  0
SCALE
  5
55
102
{ACAD_REACTORS
330
47
102
}
330
47
100
AcDbScale
 70
     0
300
4:1
140
4.0
141
1.0
290
     0
  0
SCALE
  5
56
102
{ACAD_REACTORS
330
47
102
}
330
47
100
AcDbScale
 70
     0
300
8:1
140
8.0
141
1.0
290
     0
  0
SCALE
  5
57
102
{ACAD_REACTORS
330
47
102
}
330
47
100
AcDbScale
 70
     0
300
10:1
140
10.0
141
1.0
290
     0
  0
SCALE
  5
58
102
{ACAD_REACTORS
330
47
102
}
330
47
100
AcDbScale
 70
     0
300
100:1
140
100.0
141
1.0
290
     0
  0
SCALE
  5
59
102
{ACAD_REACTORS
330
47
102
}
330
47
100
AcDbScale
 70
     0
300
1/128" = 1'-0"
140
0.0078125
141
12.0
290
     0
  0
SCALE
  5
5A
102
{ACAD_REACTORS
330
47
102
}
330
47
100
AcDbScale
 70
     0
300
1/64" = 1'-0"
140
0.015625
141
12.0
290
     0
  0
SCALE
  5
5B
102
{ACAD_REACTORS
330
47
102
}
330
47
100
AcDbScale
 70
     0
300
1/32" = 1'-0"
140
0.03125
141
12.0
290
     0
  0
SCALE
  5
5C
102
{ACAD_REACTORS
330
47
102
}
330
47
100
AcDbScale
 70
     0
300
1/16" = 1'-0"
140
0.0625
141
12.0
290
     0
  0
SCALE
  5
5D
102
{ACAD_REACTORS
330
47
102
}
330
47
100
AcDbScale
 70
     0
300
3/32" = 1'-0"
140
0.09375
141
12.0
290
     0
  0
SCALE
  5
5E
102
{ACAD_REACTORS
330
47
102
}
330
47
100
AcDbScale
 70
     0
300
1/8" = 1'-0"
140
0.125
141
12.0
290
     0
  0
SCALE
  5
5F
102
{ACAD_REACTORS
330
47
102
}
330
47
100
AcDbScale
 70
     0
300
3/16" = 1'-0"
140
0.1875
141
12.0
290
     0
  0
SCALE
  5
60
102
{ACAD_REACTORS
330
47
102
}
330
47
100
AcDbScale
 70
     0
300
1/4" = 1'-0"
140
0.25
141
12.0
290
     0
  0
SCALE
  5
61
102
{ACAD_REACTORS
330
47
102
}
330
47
100
AcDbScale
 70
     0
300
3/8" = 1'-0"
140
0.375
141
12.0
290
     0
  0
SCALE
  5
62
102
{ACAD_REACTORS
330
47
102
}
330
47
100
AcDbScale
 70
     0
300
1/2" = 1'-0"
140
0.5
141
12.0
290
     0
  0
SCALE
  5
63
102
{ACAD_REACTORS
330
47
102
}
330
47
100
AcDbScale
 70
     0
300
3/4" = 1'-0"
140
0.75
141
12.0
290
     0
  0
SCALE
  5
64
102
{ACAD_REACTORS
330
47
102
}
330
47
100
AcDbScale
 70
     0
300
1" = 1'-0"
140
1.0
141
12.0
290
     0
  0
SCALE
  5
65
102
{ACAD_REACTORS
330
47
102
}
330
47
100
AcDbScale
 70
     0
300
1-1/2" = 1'-0"
140
1.5
141
12.0
290
     0
  0
SCALE
  5
66
102
{ACAD_REACTORS
330
47
102
}
330
47
100
AcDbScale
 70
     0
300
3" = 1'-0"
140
3.0
141
12.0
290
     0
  0
SCALE
  5
67
102
{ACAD_REACTORS
330
47
102
}
330
47
100
AcDbScale
 70
     0
300
6" = 1'-0"
140
6.0
141
12.0
290
     0
  0
SCALE
  5
68
102
{ACAD_REACTORS
330
47
102
}
330
47
100
AcDbScale
 70
     0
300
1'-0" = 1'-0"
140
12.0
141
12.0
290
     0
  0
ENDSEC
  0
EOF
