  0
SECTION
  2
HEADER
  9
$ACADVER
  1
AC1015
  9
$ACADMAINTVER
 70
     6
  9
$DWGCODEPAGE
  3
ANSI_1252
  9
$INSBASE
 10
0.0
 20
0.0
 30
0.0
  9
$EXTMIN
 10
-350.0
 20
-200.0
 30
0.0
  9
$EXTMAX
 10
350.0
 20
200.0
 30
0.0
  9
$LIMMIN
 10
0.0
 20
0.0
  9
$LIMMAX
 10
420.0
 20
297.0
  9
$ORTHOMODE
 70
     0
  9
$REGENMODE
 70
     1
  9
$FILLMODE
 70
     1
  9
$QTEXTMODE
 70
     0
  9
$MIRRTEXT
 70
     1
  9
$LTSCALE
 40
1.0
  9
$ATTMODE
 70
     1
  9
$TEXTSIZE
 40
3.5
  9
$TRACEWID
 40
1.0
  9
$TEXTSTYLE
  7
STANDARD
  9
$CLAYER
  8
0
  9
$CELTYPE
  6
ByLayer
  9
$CECOLOR
 62
   256
  9
$CELTSCALE
 40
1.0
  9
$DISPSILH
 70
     0
  9
$DIMSCALE
 40
1.0
  9
$DIMASZ
 40
8.0
  9
$DIMEXO
 40
1.0
  9
$DIMDLI
 40
3.75
  9
$DIMRND
 40
0.0
  9
$DIMDLE
 40
0.0
  9
$DIMEXE
 40
1.0
  9
$DIMTP
 40
0.0
  9
$DIMTM
 40
0.0
  9
$DIMTXT
 40
16.9333333333
  9
$DIMCEN
 40
2.5
  9
$DIMTSZ
 40
0.0
  9
$DIMTOL
 70
     0
  9
$DIMLIM
 70
     0
  9
$DIMTIH
 70
     1
  9
$DIMTOH
 70
     1
  9
$DIMSE1
 70
     0
  9
$DIMSE2
 70
     0
  9
$DIMTAD
 70
     1
  9
$DIMZIN
 70
     0
  9
$DIMBLK
  1

  9
$DIMASO
 70
     1
  9
$DIMSHO
 70
     1
  9
$DIMPOST
  1

  9
$DIMAPOST
  1

  9
$DIMALT
 70
     0
  9
$DIMALTD
 70
     3
  9
$DIMALTF
 40
0.0393700787
  9
$DIMLFAC
 40
1.0
  9
$DIMTOFL
 70
     1
  9
$DIMTVP
 40
0.0
  9
$DIMTIX
 70
     0
  9
$DIMSOXD
 70
     0
  9
$DIMSAH
 70
     0
  9
$DIMBLK1
  1

  9
$DIMBLK2
  1

  9
$DIMSTYLE
  2
ISO-25
  9
$DIMCLRD
 70
     0
  9
$DIMCLRE
 70
     0
  9
$DIMCLRT
 70
     0
  9
$DIMTFAC
 40
1.0
  9
$DIMGAP
 40
1.524
  9
$DIMJUST
 70
     0
  9
$DIMSD1
 70
     0
  9
$DIMSD2
 70
     0
  9
$DIMTOLJ
 70
     0
  9
$DIMTZIN
 70
     0
  9
$DIMALTZ
 70
     0
  9
$DIMALTTZ
 70
     0
  9
$DIMUPT
 70
     0
  9
$DIMDEC
 70
     2
  9
$DIMTDEC
 70
     2
  9
$DIMALTU
 70
     2
  9
$DIMALTTD
 70
     3
  9
$DIMTXSTY
  7
STANDARD
  9
$DIMAUNIT
 70
     0
  9
$DIMADEC
 70
     2
  9
$DIMALTRND
 40
0.0
  9
$DIMAZIN
 70
     0
  9
$DIMDSEP
 70
    44
  9
$DIMATFIT
 70
     3
  9
$DIMFRAC
 70
     0
  9
$DIMLDRBLK
  1

  9
$DIMLUNIT
 70
     2
  9
$DIMLWD
 70
    -2
  9
$DIMLWE
 70
    -2
  9
$DIMTMOVE
 70
     0
  9
$LUNITS
 70
     2
  9
$LUPREC
 70
     2
  9
$SKETCHINC
 40
1.0
  9
$FILLETRAD
 40
10.0
  9
$AUNITS
 70
     0
  9
$AUPREC
 70
     2
  9
$MENU
  1
.
  9
$ELEVATION
 40
0.0
  9
$PELEVATION
 40
0.0
  9
$THICKNESS
 40
0.0
  9
$LIMCHECK
 70
     0
  9
$CHAMFERA
 40
0.0
  9
$CHAMFERB
 40
0.0
  9
$CHAMFERC
 40
0.0
  9
$CHAMFERD
 40
0.0
  9
$SKPOLY
 70
     0
  9
$TDCREATE
 40
2458382.474395266
  9
$TDUCREATE
 40
2458382.391061933
  9
$TDUPDATE
 40
2458382.474446817
  9
$TDUUPDATE
 40
2458382.391113484
  9
$TDINDWG
 40
0.0000000116
  9
$TDUSRTIMER
 40
0.0000000116
  9
$USRTIMER
 70
     1
  9
$ANGBASE
 50
0.0
  9
$ANGDIR
 70
     0
  9
$PDMODE
 70
     0
  9
$PDSIZE
 40
-1.0
  9
$PLINEWID
 40
0.0
  9
$SPLFRAME
 70
     0
  9
$SPLINETYPE
 70
     6
  9
$SPLINESEGS
 70
     8
  9
$HANDSEED
  5
282
  9
$SURFTAB1
 70
     6
  9
$SURFTAB2
 70
     6
  9
$SURFTYPE
 70
     6
  9
$SURFU
 70
     6
  9
$SURFV
 70
     6
  9
$UCSBASE
  2

  9
$UCSNAME
  2

  9
$UCSORG
 10
0.0
 20
0.0
 30
0.0
  9
$UCSXDIR
 10
1.0
 20
0.0
 30
0.0
  9
$UCSYDIR
 10
0.0
 20
1.0
 30
0.0
  9
$UCSORTHOREF
  2

  9
$UCSORTHOVIEW
 70
     0
  9
$UCSORGTOP
 10
0.0
 20
0.0
 30
0.0
  9
$UCSORGBOTTOM
 10
0.0
 20
0.0
 30
0.0
  9
$UCSORGLEFT
 10
0.0
 20
0.0
 30
0.0
  9
$UCSORGRIGHT
 10
0.0
 20
0.0
 30
0.0
  9
$UCSORGFRONT
 10
0.0
 20
0.0
 30
0.0
  9
$UCSORGBACK
 10
0.0
 20
0.0
 30
0.0
  9
$PUCSBASE
  2

  9
$PUCSNAME
  2

  9
$PUCSORG
 10
0.0
 20
0.0
 30
0.0
  9
$PUCSXDIR
 10
1.0
 20
0.0
 30
0.0
  9
$PUCSYDIR
 10
0.0
 20
1.0
 30
0.0
  9
$PUCSORTHOREF
  2

  9
$PUCSORTHOVIEW
 70
     0
  9
$PUCSORGTOP
 10
0.0
 20
0.0
 30
0.0
  9
$PUCSORGBOTTOM
 10
0.0
 20
0.0
 30
0.0
  9
$PUCSORGLEFT
 10
0.0
 20
0.0
 30
0.0
  9
$PUCSORGRIGHT
 10
0.0
 20
0.0
 30
0.0
  9
$PUCSORGFRONT
 10
0.0
 20
0.0
 30
0.0
  9
$PUCSORGBACK
 10
0.0
 20
0.0
 30
0.0
  9
$USERI1
 70
     0
  9
$USERI2
 70
     0
  9
$USERI3
 70
     0
  9
$USERI4
 70
     0
  9
$USERI5
 70
     0
  9
$USERR1
 40
0.0
  9
$USERR2
 40
0.0
  9
$USERR3
 40
0.0
  9
$USERR4
 40
0.0
  9
$USERR5
 40
0.0
  9
$WORLDVIEW
 70
     1
  9
$SHADEDGE
 70
     3
  9
$SHADEDIF
 70
    70
  9
$TILEMODE
 70
     1
  9
$MAXACTVP
 70
    64
  9
$PINSBASE
 10
0.0
 20
0.0
 30
0.0
  9
$PLIMCHECK
 70
     0
  9
$PEXTMIN
 10
-350.0
 20
0.0
 30
0.0
  9
$PEXTMAX
 10
350.0
 20
120.0
 30
0.0
  9
$PLIMMIN
 10
-404.4747081712
 20
-20.4280155642
  9
$PLIMMAX
 10
404.4747081712
 20
551.5564202335
  9
$UNITMODE
 70
     0
  9
$VISRETAIN
 70
     1
  9
$PLINEGEN
 70
     0
  9
$PSLTSCALE
 70
     1
  9
$TREEDEPTH
 70
  3020
  9
$CMLSTYLE
  2
Standard
  9
$CMLJUST
 70
     0
  9
$CMLSCALE
 40
20.0
  9
$PROXYGRAPHICS
 70
     1
  9
$MEASUREMENT
 70
     1
  9
$CELWEIGHT
370
    -1
  9
$ENDCAPS
280
     0
  9
$JOINSTYLE
280
     0
  9
$LWDISPLAY
290
     1
  9
$INSUNITS
 70
     4
  9
$HYPERLINKBASE
  1

  9
$STYLESHEET
  1

  9
$XEDIT
290
     1
  9
$CEPSNTYPE
380
     0
  9
$PSTYLEMODE
290
     1
  9
$FINGERPRINTGUID
  2
{29777ED9-C91C-46DB-9662-C7FF4945EC9F}
  9
$VERSIONGUID
  2
{FAEB1C32-E019-11D5-929B-00C0DF256EC4}
  9
$EXTNAMES
290
     1
  9
$PSVPSCALE
 40
0.0
  9
$OLESTARTUP
290
     0
  0
ENDSEC
  0
SECTION
  2
CLASSES
  0
CLASS
  1
ACDBDICTIONARYWDFLT
  2
AcDbDictionaryWithDefault
  3
ObjectDBX Classes
 90
        0
280
     0
281
     0
  0
CLASS
  1
VISUALSTYLE
  2
AcDbVisualStyle
  3
ObjectDBX Classes
 90
     4095
280
     0
281
     0
  0
CLASS
  1
MATERIAL
  2
AcDbMaterial
  3
ObjectDBX Classes
 90
     1153
280
     0
281
     0
  0
CLASS
  1
SCALE
  2
AcDbScale
  3
ObjectDBX Classes
 90
     1153
280
     0
281
     0
  0
CLASS
  1
TABLESTYLE
  2
AcDbTableStyle
  3
ObjectDBX Classes
 90
     4095
280
     0
281
     0
  0
CLASS
  1
MLEADERSTYLE
  2
AcDbMLeaderStyle
  3
ACDB_MLEADERSTYLE_CLASS
 90
     4095
280
     0
281
     0
  0
CLASS
  1
SUN
  2
AcDbSun
  3
SCENEOE
 90
     1153
280
     0
281
     0
  0
CLASS
  1
ACDBPLACEHOLDER
  2
AcDbPlaceHolder
  3
ObjectDBX Classes
 90
        0
280
     0
281
     0
  0
CLASS
  1
LAYOUT
  2
AcDbLayout
  3
ObjectDBX Classes
 90
        0
280
     0
281
     0
  0
ENDSEC
  0
SECTION
  2
TABLES
  0
TABLE
  2
VPORT
  5
8
330
0
100
AcDbSymbolTable
 70
     1
  0
VPORT
  5
29
330
8
100
AcDbSymbolTableRecord
100
AcDbViewportTableRecord
  2
*Active
 70
     0
 10
0.0
 20
0.0
 11
1.0
 21
1.0
 12
0.0
 22
0.0
 13
0.0
 23
0.0
 14
10.0
 24
10.0
 15
10.0
 25
10.0
 16
0.0
 26
0.0
 36
1.0
 17
0.0
 27
0.0
 37
0.0
 40
408.0
 41
1.75
 42
50.0
 43
0.0
 44
0.0
 50
0.0
 51
0.0
 71
     0
 72
   100
 73
     1
 74
     3
 75
     0
 76
     0
 77
     0
 78
     0
281
     0
 65
     1
110
0.0
120
0.0
130
0.0
111
1.0
121
0.0
131
0.0
112
0.0
122
1.0
132
0.0
 79
     0
146
0.0
  0
ENDTAB
  0
TABLE
  2
LTYPE
  5
5
330
0
100
AcDbSymbolTable
 70
     6
  0
LTYPE
  5
14
330
5
100
AcDbSymbolTableRecord
100
AcDbLinetypeTableRecord
  2
ByBlock
 70
     0
  3

 72
    65
 73
     0
 40
0.0
  0
LTYPE
  5
15
330
5
100
AcDbSymbolTableRecord
100
AcDbLinetypeTableRecord
  2
ByLayer
 70
     0
  3

 72
    65
 73
     0
 40
0.0
  0
LTYPE
  5
16
330
5
100
AcDbSymbolTableRecord
100
AcDbLinetypeTableRecord
  2
Continuous
 70
     0
  3
Solid line
 72
    65
 73
     0
 40
0.0
  0
LTYPE
  5
6E
330
5
100
AcDbSymbolTableRecord
100
AcDbLinetypeTableRecord
  2
HIDDEN
 70
     0
  3
Hidden __ __ __ __ __ __ __ __ __ __ __ __ __ __
 72
    65
 73
     2
 40
1.905
 49
1.27
 74
     0
 49
-0.635
 74
     0
  0
LTYPE
  5
6F
330
5
100
AcDbSymbolTableRecord
100
AcDbLinetypeTableRecord
  2
PHANTOM
 70
     0
  3
Phantom ______  __  __  ______  __  __  ______
 72
    65
 73
     6
 40
12.7
 49
6.35
 74
     0
 49
-1.27
 74
     0
 49
1.27
 74
     0
 49
-1.27
 74
     0
 49
1.27
 74
     0
 49
-1.27
 74
     0
  0
LTYPE
  5
70
330
5
100
AcDbSymbolTableRecord
100
AcDbLinetypeTableRecord
  2
CENTER
 70
     0
  3
Center ____ _ ____ _ ____ _ ____ _ ____ _ ____
 72
    65
 73
     4
 40
10.16
 49
6.35
 74
     0
 49
-1.27
 74
     0
 49
1.27
 74
     0
 49
-1.27
 74
     0
  0
LTYPE
  5
71
330
5
100
AcDbSymbolTableRecord
100
AcDbLinetypeTableRecord
  2
CENTERX2
 70
     0
  3
Center (2x) ________  __  ________  __  _____
 72
    65
 73
     4
 40
20.32
 49
12.7
 74
     0
 49
-2.54
 74
     0
 49
2.54
 74
     0
 49
-2.54
 74
     0
  0
LTYPE
  5
72
330
5
100
AcDbSymbolTableRecord
100
AcDbLinetypeTableRecord
  2
DOT2
 70
     0
  3
Dot (.5x) ........................................
 72
    65
 73
     2
 40
0.635
 49
0.0
 74
     0
 49
-0.635
 74
     0
  0
ENDTAB
  0
TABLE
  2
LAYER
  5
2
330
0
100
AcDbSymbolTable
 70
     1
  0
LAYER
  5
10
330
2
100
AcDbSymbolTableRecord
100
AcDbLayerTableRecord
  2
0
 70
     0
 62
     7
  6
Continuous
370
    -3
390
F
  0
ENDTAB
  0
TABLE
  2
STYLE
  5
3
330
0
100
AcDbSymbolTable
 70
     1
  0
STYLE
  5
11
330
3
100
AcDbSymbolTableRecord
100
AcDbTextStyleTableRecord
  2
STANDARD
 70
     0
 40
0.0
 41
1.0
 50
0.0
 71
     0
 42
3.5
  3
GOTHIC.TTF
  4

1001
ACAD
1000
CENTURY GOTHIC
1071
       34
  0
ENDTAB
  0
TABLE
  2
VIEW
  5
6
330
0
100
AcDbSymbolTable
 70
     0
  0
ENDTAB
  0
TABLE
  2
UCS
  5
7
330
0
100
AcDbSymbolTable
 70
     0
  0
ENDTAB
  0
TABLE
  2
APPID
  5
9
330
0
100
AcDbSymbolTable
 70
     1
  0
APPID
  5
12
330
9
100
AcDbSymbolTableRecord
100
AcDbRegAppTableRecord
  2
ACAD
 70
     0
  0
ENDTAB
  0
TABLE
  2
DIMSTYLE
  5
A
330
0
100
AcDbSymbolTable
 70
     1
100
AcDbDimStyleTable
  0
DIMSTYLE
105
27
330
A
100
AcDbSymbolTableRecord
100
AcDbDimStyleTableRecord
  2
ISO-25
 70
     0
 41
2.5
 42
0.625
 43
3.75
 44
1.25
 73
     0
 74
     0
 77
     1
 78
     8
140
2.5
141
2.5
143
0.0393700787
147
0.625
171
     3
172
     1
178
     0
271
     2
272
     2
274
     3
278
    44
283
     0
284
     8
340
11
  0
ENDTAB
  0
TABLE
  2
BLOCK_RECORD
  5
1
330
0
100
AcDbSymbolTable
 70
     8
  0
BLOCK_RECORD
  5
1F
330
1
100
AcDbSymbolTableRecord
100
AcDbBlockTableRecord
  2
*Model_Space
340
22
  0
BLOCK_RECORD
  5
1B
330
1
100
AcDbSymbolTableRecord
100
AcDbBlockTableRecord
  2
*Paper_Space
340
1E
  0
BLOCK_RECORD
  5
23
330
1
100
AcDbSymbolTableRecord
100
AcDbBlockTableRecord
  2
*Paper_Space0
340
26
  0
BLOCK_RECORD
  5
E1
330
1
100
AcDbSymbolTableRecord
100
AcDbBlockTableRecord
  2
*Paper_Space1
340
E2
  0
BLOCK_RECORD
  5
109
330
1
100
AcDbSymbolTableRecord
100
AcDbBlockTableRecord
  2
*Paper_Space2
340
10A
  0
BLOCK_RECORD
  5
131
330
1
100
AcDbSymbolTableRecord
100
AcDbBlockTableRecord
  2
*Paper_Space3
340
132
  0
BLOCK_RECORD
  5
147
330
1
100
AcDbSymbolTableRecord
100
AcDbBlockTableRecord
  2
*Paper_Space4
340
148
  0
BLOCK_RECORD
  5
162
330
1
100
AcDbSymbolTableRecord
100
AcDbBlockTableRecord
  2
*Paper_Space5
340
163
  0
BLOCK_RECORD
  5
1C4
330
1
100
AcDbSymbolTableRecord
100
AcDbBlockTableRecord
  2
*Paper_Space6
340
1C5
  0
BLOCK_RECORD
  5
220
330
1
100
AcDbSymbolTableRecord
100
AcDbBlockTableRecord
  2
*Paper_Space7
340
221
  0
ENDTAB
  0
ENDSEC
  0
SECTION
  2
BLOCKS
  0
BLOCK
  5
20
330
1F
100
AcDbEntity
  8
0
100
AcDbBlockBegin
  2
*Model_Space
 70
     0
 10
0.0
 20
0.0
 30
0.0
  3
*Model_Space
  1

  0
ENDBLK
  5
21
330
1F
100
AcDbEntity
  8
0
100
AcDbBlockEnd
  0
BLOCK
  5
1C
330
1B
100
AcDbEntity
 67
     1
  8
0
100
AcDbBlockBegin
  2
*Paper_Space
 70
     0
 10
0.0
 20
0.0
 30
0.0
  3
*Paper_Space
  1

  0
ENDBLK
  5
1D
330
1B
100
AcDbEntity
 67
     1
  8
0
100
AcDbBlockEnd
  0
BLOCK
  5
24
330
23
100
AcDbEntity
  8
0
100
AcDbBlockBegin
  2
*Paper_Space0
 70
     0
 10
0.0
 20
0.0
 30
0.0
  3
*Paper_Space0
  1

  0
SPLINE
  5
D1
330
23
100
AcDbEntity
  8
0
  6
Continuous
 62
     7
370
    25
100
AcDbSpline
210
0.0
220
0.0
230
1.0
 70
    24
 71
     3
 72
    14
 73
    10
 74
     0
 42
0.000000001
 43
0.00000001
 40
0.0
 40
0.0
 40
0.0
 40
0.0
 40
0.2499999999999996
 40
0.2499999999999996
 40
0.4999999999999997
 40
0.4999999999999997
 40
0.7499999999999998
 40
0.7499999999999998
 40
1.0
 40
1.0
 40
1.0
 40
1.0
 10
197.9999999999993
 20
0.000000000000569
 30
0.0
 10
197.9999999999997
 20
0.000000000000569
 30
0.0
 10
177.1382947364994
 20
0.000000000000569
 30
0.0
 10
102.8759906133745
 20
0.000000000000569
 30
0.0
 10
52.51137883200115
 20
0.000000000000569
 30
0.0
 10
-52.51137883199812
 20
0.000000000000569
 30
0.0
 10
-102.8759906133717
 20
0.000000000000569
 30
0.0
 10
-177.1382947364972
 20
0.000000000000569
 30
0.0
 10
-197.999999999998
 20
0.000000000000569
 30
0.0
 10
-197.9999999999979
 20
0.000000000000569
 30
0.0
  0
SPLINE
  5
D3
330
23
100
AcDbEntity
  8
0
  6
Continuous
 62
     7
370
    25
100
AcDbSpline
210
0.0
220
0.0
230
1.0
 70
    24
 71
     3
 72
    14
 73
    10
 74
     0
 42
0.000000001
 43
0.00000001
 40
0.0
 40
0.0
 40
0.0
 40
0.0
 40
0.25
 40
0.25
 40
0.5
 40
0.5
 40
0.75
 40
0.75
 40
1.0
 40
1.0
 40
1.0
 40
1.0
 10
-197.9999999999996
 20
120.0000000000008
 30
0.0
 10
-197.9999999999996
 20
120.0000000000008
 30
0.0
 10
-177.1382947364989
 20
120.0000000000008
 30
0.0
 10
-102.8759906133729
 20
120.0000000000008
 30
0.0
 10
-52.51137883199937
 20
120.0000000000008
 30
0.0
 10
52.51137883200089
 20
120.0000000000008
 30
0.0
 10
102.8759906133744
 20
120.0000000000008
 30
0.0
 10
177.1382947365005
 20
120.0000000000008
 30
0.0
 10
198.0000000000011
 20
120.0000000000008
 30
0.0
 10
198.0000000000011
 20
120.0000000000008
 30
0.0
  0
LINE
  5
D9
330
23
100
AcDbEntity
  8
0
  6
Continuous
 62
     7
370
    25
100
AcDbLine
 10
200.0
 20
2.0
 30
0.0
 11
-200.0
 21
2.0
 31
0.0
  0
LINE
  5
DA
330
23
100
AcDbEntity
  8
0
  6
Continuous
 62
     7
370
    25
100
AcDbLine
 10
200.0
 20
118.0
 30
0.0
 11
-200.0
 21
118.0
 31
0.0
  0
LINE
  5
DB
330
23
100
AcDbEntity
  8
0
  6
Continuous
 62
     7
370
    25
100
AcDbLine
 10
200.0
 20
118.0
 30
0.0
 11
200.0
 21
2.0
 31
0.0
  0
LINE
  5
DC
330
23
100
AcDbEntity
  8
0
  6
Continuous
 62
     7
370
    25
100
AcDbLine
 10
-200.0
 20
118.0
 30
0.0
 11
-200.0
 21
2.0
 31
0.0
  0
ARC
  5
DD
330
23
100
AcDbEntity
  8
0
  6
Continuous
 62
     7
370
    25
100
AcDbCircle
 10
198.0
 20
2.0
 30
0.0
 40
1.999999999999375
100
AcDbArc
 50
270.0
 51
0.0
  0
ARC
  5
DE
330
23
100
AcDbEntity
  8
0
  6
Continuous
 62
     7
370
    25
100
AcDbCircle
 10
-198.0
 20
2.0
 30
0.0
 40
1.999999999999403
100
AcDbArc
 50
180.0
 51
270.0
  0
ARC
  5
DF
330
23
100
AcDbEntity
  8
0
  6
Continuous
 62
     7
370
    25
100
AcDbCircle
 10
198.0
 20
118.0
 30
0.0
 40
2.000000000001336
100
AcDbArc
 50
0.0
 51
90.0
  0
ARC
  5
E0
330
23
100
AcDbEntity
  8
0
  6
Continuous
 62
     7
370
    25
100
AcDbCircle
 10
-198.0
 20
118.0
 30
0.0
 40
2.000000000001336
100
AcDbArc
 50
90.0
 51
180.0
  0
VIEWPORT
  5
272
330
23
100
AcDbEntity
  8
0
100
AcDbViewport
 10
0.0
 20
0.0
 30
0.0
 40
205.6
 41
156.0
 68
     1
 69
     1
 12
0.0
 22
0.0
 13
0.0
 23
0.0
 14
10.0
 24
10.0
 15
10.0
 25
10.0
 16
0.0
 26
0.0
 36
1.0
 17
0.0
 27
0.0
 37
0.0
 42
50.0
 43
0.0
 44
0.0
 45
541.7509727626
 50
0.0
 51
0.0
 72
   100
 90
   557152
  1

281
     0
 71
     1
 74
     0
110
0.0
120
0.0
130
0.0
111
1.0
121
0.0
131
0.0
112
0.0
122
1.0
132
0.0
 79
     0
146
0.0
  0
ENDBLK
  5
25
330
23
100
AcDbEntity
  8
0
100
AcDbBlockEnd
  0
BLOCK
  5
E3
330
E1
100
AcDbEntity
  8
0
100
AcDbBlockBegin
  2
*Paper_Space1
 70
     0
 10
0.0
 20
0.0
 30
0.0
  3
*Paper_Space1
  1

  0
SPLINE
  5
EB
330
E1
100
AcDbEntity
  8
0
  6
Continuous
 62
     7
370
    25
100
AcDbSpline
210
0.0
220
0.0
230
1.0
 70
    24
 71
     3
 72
    10
 73
     6
 74
     0
 42
0.000000001
 43
0.00000001
 40
0.0
 40
0.0
 40
0.0
 40
0.0
 40
0.5
 40
0.5
 40
1.0
 40
1.0
 40
1.0
 40
1.0
 10
-347.9999999999972
 20
120.0000000000008
 30
0.0
 10
-347.9999999999973
 20
120.0000000000008
 30
0.0
 10
-327.1382947364959
 20
120.0000000000008
 30
0.0
 10
-252.8759906133697
 20
120.0000000000008
 30
0.0
 10
-202.5113788319946
 20
120.0000000000008
 30
0.0
 10
-149.999999999995
 20
120.0000000000008
 30
0.0
  0
SPLINE
  5
ED
330
E1
100
AcDbEntity
  8
0
  6
Continuous
 62
     7
370
    25
100
AcDbSpline
210
0.0
220
0.0
230
1.0
 70
    24
 71
     3
 72
    10
 73
     6
 74
     0
 42
0.000000001
 43
0.00000001
 40
0.0
 40
0.0
 40
0.0
 40
0.0
 40
0.5
 40
0.5
 40
1.0
 40
1.0
 40
1.0
 40
1.0
 10
347.9999999999989
 20
0.000000000000569
 30
0.0
 10
347.9999999999989
 20
0.000000000000569
 30
0.0
 10
327.1382947364983
 20
0.000000000000569
 30
0.0
 10
252.8759906133731
 20
0.000000000000569
 30
0.0
 10
202.5113788319999
 20
0.000000000000569
 30
0.0
 10
150.0000000000003
 20
0.000000000000569
 30
0.0
  0
SPLINE
  5
EF
330
E1
100
AcDbEntity
  8
0
  6
Continuous
 62
     7
370
    25
100
AcDbSpline
210
0.0
220
0.0
230
1.0
 70
    24
 71
     3
 72
    10
 73
     6
 74
     0
 42
0.000000001
 43
0.00000001
 40
0.0
 40
0.0
 40
0.0
 40
0.0
 40
0.5
 40
0.5
 40
1.0
 40
1.0
 40
1.0
 40
1.0
 10
-149.9999999999986
 20
0.000000000000569
 30
0.0
 10
-202.5113788319983
 20
0.000000000000569
 30
0.0
 10
-252.8759906133693
 20
0.000000000000569
 30
0.0
 10
-327.1382947364955
 20
0.000000000000569
 30
0.0
 10
-347.999999999996
 20
0.000000000000569
 30
0.0
 10
-347.9999999999972
 20
0.000000000000569
 30
0.0
  0
SPLINE
  5
F1
330
E1
100
AcDbEntity
  8
0
  6
Continuous
 62
     7
370
    25
100
AcDbSpline
210
0.0
220
0.0
230
1.0
 70
    24
 71
     3
 72
    10
 73
     6
 74
     0
 42
0.000000001
 43
0.00000001
 40
0.0
 40
0.0
 40
0.0
 40
0.0
 40
0.4999999999999999
 40
0.4999999999999999
 40
0.9999999999999999
 40
0.9999999999999999
 40
0.9999999999999999
 40
0.9999999999999999
 10
150.0000000000003
 20
120.0000000000008
 30
0.0
 10
202.5113788320004
 20
120.0000000000008
 30
0.0
 10
252.8759906133718
 20
120.0000000000008
 30
0.0
 10
327.1382947364988
 20
120.0000000000008
 30
0.0
 10
347.9999999999995
 20
120.0000000000008
 30
0.0
 10
348.0000000000007
 20
120.0000000000008
 30
0.0
  0
LINE
  5
FD
330
E1
100
AcDbEntity
  8
0
  6
Continuous
 62
     7
370
    25
100
AcDbLine
 10
-350.0
 20
118.0
 30
0.0
 11
-350.0
 21
2.0
 31
0.0
  0
LINE
  5
FE
330
E1
100
AcDbEntity
  8
0
  6
Continuous
 62
     7
370
    25
100
AcDbLine
 10
350.0
 20
2.0
 30
0.0
 11
350.0
 21
118.0
 31
0.0
  0
LINE
  5
FF
330
E1
100
AcDbEntity
  8
0
  6
Continuous
 62
     7
370
    25
100
AcDbLine
 10
-150.0
 20
0.0
 30
0.0
 11
-150.0
 21
120.0
 31
0.0
  0
LINE
  5
100
330
E1
100
AcDbEntity
  8
0
  6
Continuous
 62
     7
370
    25
100
AcDbLine
 10
150.0
 20
120.0
 30
0.0
 11
150.0
 21
0.0
 31
0.0
  0
LINE
  5
101
330
E1
100
AcDbEntity
  8
0
  6
Continuous
 62
     7
370
    25
100
AcDbLine
 10
350.0
 20
2.0
 30
0.0
 11
-350.0
 21
2.0
 31
0.0
  0
LINE
  5
102
330
E1
100
AcDbEntity
  8
0
  6
Continuous
 62
     7
370
    25
100
AcDbLine
 10
350.0
 20
118.0
 30
0.0
 11
-350.0
 21
118.0
 31
0.0
  0
LINE
  5
103
330
E1
100
AcDbEntity
  8
0
  6
Continuous
 62
     7
370
    25
100
AcDbLine
 10
150.0
 20
120.0
 30
0.0
 11
-150.0
 21
120.0
 31
0.0
  0
LINE
  5
104
330
E1
100
AcDbEntity
  8
0
  6
Continuous
 62
     7
370
    25
100
AcDbLine
 10
-150.0
 20
0.0
 30
0.0
 11
150.0
 21
0.0
 31
0.0
  0
ARC
  5
105
330
E1
100
AcDbEntity
  8
0
  6
Continuous
 62
     7
370
    25
100
AcDbCircle
 10
-348.0
 20
118.0
 30
0.0
 40
1.999999999999545
100
AcDbArc
 50
90.0
 51
180.0
  0
ARC
  5
106
330
E1
100
AcDbEntity
  8
0
  6
Continuous
 62
     7
370
    25
100
AcDbCircle
 10
348.0
 20
2.0
 30
0.0
 40
2.000000000000682
100
AcDbArc
 50
270.0
 51
360.0
  0
ARC
  5
107
330
E1
100
AcDbEntity
  8
0
  6
Continuous
 62
     7
370
    25
100
AcDbCircle
 10
-348.0
 20
2.0
 30
0.0
 40
1.999999999999659
100
AcDbArc
 50
180.0
 51
270.0
  0
ARC
  5
108
330
E1
100
AcDbEntity
  8
0
  6
Continuous
 62
     7
370
    25
100
AcDbCircle
 10
348.0
 20
118.0
 30
0.0
 40
2.000000000000227
100
AcDbArc
 50
0.0
 51
90.0
  0
VIEWPORT
  5
274
330
E1
100
AcDbEntity
  8
0
100
AcDbViewport
 10
0.0
 20
0.0
 30
0.0
 40
205.6
 41
156.0
 68
     1
 69
     1
 12
0.0
 22
0.0
 13
0.0
 23
0.0
 14
10.0
 24
10.0
 15
10.0
 25
10.0
 16
0.0
 26
0.0
 36
1.0
 17
0.0
 27
0.0
 37
0.0
 42
50.0
 43
0.0
 44
0.0
 45
541.7509727626
 50
0.0
 51
0.0
 72
   100
 90
   557152
  1

281
     0
 71
     1
 74
     0
110
0.0
120
0.0
130
0.0
111
1.0
121
0.0
131
0.0
112
0.0
122
1.0
132
0.0
 79
     0
146
0.0
  0
ENDBLK
  5
E4
330
E1
100
AcDbEntity
  8
0
100
AcDbBlockEnd
  0
BLOCK
  5
10B
330
109
100
AcDbEntity
  8
0
100
AcDbBlockBegin
  2
*Paper_Space2
 70
     0
 10
0.0
 20
0.0
 30
0.0
  3
*Paper_Space2
  1

  0
SPLINE
  5
114
330
109
100
AcDbEntity
  8
0
  6
Continuous
 62
     7
370
    25
100
AcDbSpline
210
0.0
220
0.0
230
1.0
 70
    24
 71
     3
 72
    10
 73
     6
 74
     0
 42
0.000000001
 43
0.00000001
 40
0.0
 40
0.0
 40
0.0
 40
0.0
 40
0.5
 40
0.5
 40
1.0
 40
1.0
 40
1.0
 40
1.0
 10
150.0000000000003
 20
120.0000000000008
 30
0.0
 10
202.511378832
 20
120.0000000000008
 30
0.0
 10
252.8759906133699
 20
120.0000000000008
 30
0.0
 10
327.1382947364959
 20
120.0000000000008
 30
0.0
 10
347.9999999999959
 20
120.0000000000008
 30
0.0
 10
347.9999999999972
 20
120.0000000000008
 30
0.0
  0
SPLINE
  5
116
330
109
100
AcDbEntity
  8
0
  6
Continuous
 62
     7
370
    25
100
AcDbSpline
210
0.0
220
0.0
230
1.0
 70
    24
 71
     3
 72
    10
 73
     6
 74
     0
 42
0.000000001
 43
0.00000001
 40
0.0
 40
0.0
 40
0.0
 40
0.0
 40
0.5
 40
0.5
 40
1.0
 40
1.0
 40
1.0
 40
1.0
 10
-149.9999999999985
 20
0.000000000000569
 30
0.0
 10
-202.5113788319982
 20
0.000000000000569
 30
0.0
 10
-252.8759906133701
 20
0.000000000000569
 30
0.0
 10
-327.1382947364967
 20
0.000000000000569
 30
0.0
 10
-347.9999999999977
 20
0.000000000000569
 30
0.0
 10
-347.999999999999
 20
0.000000000000569
 30
0.0
  0
SPLINE
  5
117
330
109
100
AcDbEntity
  8
0
  6
Continuous
 62
     7
370
    25
100
AcDbSpline
210
0.0
220
0.0
230
1.0
 70
    24
 71
     3
 72
    10
 73
     6
 74
     0
 42
0.000000001
 43
0.00000001
 40
0.0
 40
0.0
 40
0.0
 40
0.0
 40
0.5
 40
0.5
 40
1.0
 40
1.0
 40
1.0
 40
1.0
 10
347.9999999999973
 20
0.000000000000569
 30
0.0
 10
347.9999999999985
 20
0.000000000000569
 30
0.0
 10
327.1382947364979
 20
0.000000000000569
 30
0.0
 10
252.8759906133733
 20
0.000000000000569
 30
0.0
 10
202.5113788319982
 20
0.000000000000569
 30
0.0
 10
149.9999999999986
 20
0.000000000000569
 30
0.0
  0
SPLINE
  5
119
330
109
100
AcDbEntity
  8
0
  6
Continuous
 62
     7
370
    25
100
AcDbSpline
210
0.0
220
0.0
230
1.0
 70
    24
 71
     3
 72
    10
 73
     6
 74
     0
 42
0.000000001
 43
0.00000001
 40
0.0
 40
0.0
 40
0.0
 40
0.0
 40
0.4999999999999999
 40
0.4999999999999999
 40
0.9999999999999999
 40
0.9999999999999999
 40
0.9999999999999999
 40
0.9999999999999999
 10
-348.0000000000007
 20
120.0000000000008
 30
0.0
 10
-348.000000000002
 20
120.0000000000008
 30
0.0
 10
-327.1382947365012
 20
120.0000000000008
 30
0.0
 10
-252.8759906133762
 20
120.0000000000008
 30
0.0
 10
-202.5113788320004
 20
120.0000000000008
 30
0.0
 10
-150.0000000000003
 20
120.0000000000008
 30
0.0
  0
LINE
  5
125
330
109
100
AcDbEntity
  8
0
  6
Continuous
 62
     7
370
    25
100
AcDbLine
 10
350.0
 20
2.0
 30
0.0
 11
350.0
 21
118.0
 31
0.0
  0
LINE
  5
126
330
109
100
AcDbEntity
  8
0
  6
Continuous
 62
     7
370
    25
100
AcDbLine
 10
-350.0
 20
118.0
 30
0.0
 11
-350.0
 21
2.0
 31
0.0
  0
LINE
  5
127
330
109
100
AcDbEntity
  8
0
  6
Continuous
 62
     7
370
    25
100
AcDbLine
 10
150.0
 20
120.0
 30
0.0
 11
150.0
 21
0.0
 31
0.0
  0
LINE
  5
128
330
109
100
AcDbEntity
  8
0
  6
Continuous
 62
     7
370
    25
100
AcDbLine
 10
-150.0
 20
120.0
 30
0.0
 11
-150.0
 21
0.0
 31
0.0
  0
LINE
  5
129
330
109
100
AcDbEntity
  8
0
  6
Continuous
 62
     7
370
    25
100
AcDbLine
 10
150.0
 20
120.0
 30
0.0
 11
-150.0
 21
120.0
 31
0.0
  0
LINE
  5
12A
330
109
100
AcDbEntity
  8
0
  6
Continuous
 62
     7
370
    25
100
AcDbLine
 10
350.0
 20
118.0
 30
0.0
 11
-350.0
 21
118.0
 31
0.0
  0
LINE
  5
12B
330
109
100
AcDbEntity
  8
0
  6
Continuous
 62
     7
370
    25
100
AcDbLine
 10
350.0
 20
2.0
 30
0.0
 11
-350.0
 21
2.0
 31
0.0
  0
LINE
  5
12C
330
109
100
AcDbEntity
  8
0
  6
Continuous
 62
     7
370
    25
100
AcDbLine
 10
-150.0
 20
0.0
 30
0.0
 11
150.0
 21
0.0
 31
0.0
  0
ARC
  5
12D
330
109
100
AcDbEntity
  8
0
  6
Continuous
 62
     7
370
    25
100
AcDbCircle
 10
348.0
 20
118.0
 30
0.0
 40
2.000000000000171
100
AcDbArc
 50
0.0
 51
90.0
  0
ARC
  5
12E
330
109
100
AcDbEntity
  8
0
  6
Continuous
 62
     7
370
    25
100
AcDbCircle
 10
-348.0
 20
2.0
 30
0.0
 40
1.999999999999659
100
AcDbArc
 50
180.0
 51
270.0
  0
ARC
  5
12F
330
109
100
AcDbEntity
  8
0
  6
Continuous
 62
     7
370
    25
100
AcDbCircle
 10
348.0
 20
2.0
 30
0.0
 40
2.00000000000071
100
AcDbArc
 50
270.0
 51
360.0
  0
ARC
  5
130
330
109
100
AcDbEntity
  8
0
  6
Continuous
 62
     7
370
    25
100
AcDbCircle
 10
-348.0
 20
118.0
 30
0.0
 40
1.999999999999503
100
AcDbArc
 50
90.0
 51
180.0
  0
VIEWPORT
  5
276
330
109
100
AcDbEntity
  8
0
100
AcDbViewport
 10
0.0
 20
0.0
 30
0.0
 40
205.6
 41
156.0
 68
     1
 69
     1
 12
0.0
 22
0.0
 13
0.0
 23
0.0
 14
10.0
 24
10.0
 15
10.0
 25
10.0
 16
0.0
 26
0.0
 36
1.0
 17
0.0
 27
0.0
 37
0.0
 42
50.0
 43
0.0
 44
0.0
 45
541.7509727626
 50
0.0
 51
0.0
 72
   100
 90
   557152
  1

281
     0
 71
     1
 74
     0
110
0.0
120
0.0
130
0.0
111
1.0
121
0.0
131
0.0
112
0.0
122
1.0
132
0.0
 79
     0
146
0.0
  0
ENDBLK
  5
10C
330
109
100
AcDbEntity
  8
0
100
AcDbBlockEnd
  0
BLOCK
  5
133
330
131
100
AcDbEntity
  8
0
100
AcDbBlockBegin
  2
*Paper_Space3
 70
     0
 10
0.0
 20
0.0
 30
0.0
  3
*Paper_Space3
  1

  0
SPLINE
  5
137
330
131
100
AcDbEntity
  8
0
  6
Continuous
 62
     7
370
    25
100
AcDbSpline
210
0.0
220
0.0
230
1.0
 70
    24
 71
     3
 72
    14
 73
    10
 74
     0
 42
0.000000001
 43
0.00000001
 40
0.0
 40
0.0
 40
0.0
 40
0.0
 40
0.2499999999999996
 40
0.2499999999999996
 40
0.4999999999999997
 40
0.4999999999999997
 40
0.7499999999999998
 40
0.7499999999999998
 40
1.0
 40
1.0
 40
1.0
 40
1.0
 10
-197.9999999999992
 20
120.0000000000008
 30
0.0
 10
-197.9999999999988
 20
120.0000000000008
 30
0.0
 10
-177.1382947364976
 20
120.0000000000008
 30
0.0
 10
-102.8759906133715
 20
120.0000000000008
 30
0.0
 10
-52.51137883199767
 20
120.0000000000008
 30
0.0
 10
52.51137883200153
 20
120.0000000000008
 30
0.0
 10
102.8759906133748
 20
120.0000000000008
 30
0.0
 10
177.138294736499
 20
120.0000000000008
 30
0.0
 10
197.9999999999988
 20
120.0000000000008
 30
0.0
 10
197.9999999999979
 20
120.0000000000008
 30
0.0
  0
SPLINE
  5
139
330
131
100
AcDbEntity
  8
0
  6
Continuous
 62
     7
370
    25
100
AcDbSpline
210
0.0
220
0.0
230
1.0
 70
    24
 71
     3
 72
    14
 73
    10
 74
     0
 42
0.000000001
 43
0.00000001
 40
0.0
 40
0.0
 40
0.0
 40
0.0
 40
0.25
 40
0.25
 40
0.5
 40
0.5
 40
0.75
 40
0.75
 40
1.0
 40
1.0
 40
1.0
 40
1.0
 10
197.9999999999979
 20
0.000000000000569
 30
0.0
 10
197.999999999998
 20
0.000000000000569
 30
0.0
 10
177.1382947364975
 20
0.000000000000569
 30
0.0
 10
102.8759906133721
 20
0.000000000000569
 30
0.0
 10
52.51137883199898
 20
0.000000000000569
 30
0.0
 10
-52.51137883200034
 20
0.000000000000569
 30
0.0
 10
-102.8759906133735
 20
0.000000000000569
 30
0.0
 10
-177.1382947364988
 20
0.000000000000569
 30
0.0
 10
-197.9999999999993
 20
0.000000000000569
 30
0.0
 10
-197.9999999999993
 20
0.000000000000569
 30
0.0
  0
LINE
  5
13F
330
131
100
AcDbEntity
  8
0
  6
Continuous
 62
     7
370
    25
100
AcDbLine
 10
200.0
 20
118.0
 30
0.0
 11
-200.0
 21
118.0
 31
0.0
  0
LINE
  5
140
330
131
100
AcDbEntity
  8
0
  6
Continuous
 62
     7
370
    25
100
AcDbLine
 10
200.0
 20
2.0
 30
0.0
 11
-200.0
 21
2.0
 31
0.0
  0
LINE
  5
141
330
131
100
AcDbEntity
  8
0
  6
Continuous
 62
     7
370
    25
100
AcDbLine
 10
200.0
 20
2.0
 30
0.0
 11
200.0
 21
118.0
 31
0.0
  0
LINE
  5
142
330
131
100
AcDbEntity
  8
0
  6
Continuous
 62
     7
370
    25
100
AcDbLine
 10
-200.0
 20
118.0
 30
0.0
 11
-200.0
 21
2.0
 31
0.0
  0
ARC
  5
143
330
131
100
AcDbEntity
  8
0
  6
Continuous
 62
     7
370
    25
100
AcDbCircle
 10
-198.0
 20
118.0
 30
0.0
 40
2.000000000001336
100
AcDbArc
 50
90.0
 51
180.0
  0
ARC
  5
144
330
131
100
AcDbEntity
  8
0
  6
Continuous
 62
     7
370
    25
100
AcDbCircle
 10
198.0
 20
118.0
 30
0.0
 40
1.999999999999361
100
AcDbArc
 50
360.0
 51
90.0000000001
  0
ARC
  5
145
330
131
100
AcDbEntity
  8
0
  6
Continuous
 62
     7
370
    25
100
AcDbCircle
 10
-198.0
 20
2.0
 30
0.0
 40
1.999999999999318
100
AcDbArc
 50
180.0
 51
270.0
  0
ARC
  5
146
330
131
100
AcDbEntity
  8
0
  6
Continuous
 62
     7
370
    25
100
AcDbCircle
 10
198.0
 20
2.0
 30
0.0
 40
2.000000000001336
100
AcDbArc
 50
270.0
 51
360.0
  0
VIEWPORT
  5
278
330
131
100
AcDbEntity
  8
0
100
AcDbViewport
 10
0.0
 20
0.0
 30
0.0
 40
205.6
 41
156.0
 68
     1
 69
     1
 12
0.0
 22
0.0
 13
0.0
 23
0.0
 14
10.0
 24
10.0
 15
10.0
 25
10.0
 16
0.0
 26
0.0
 36
1.0
 17
0.0
 27
0.0
 37
0.0
 42
50.0
 43
0.0
 44
0.0
 45
541.7509727626
 50
0.0
 51
0.0
 72
   100
 90
   557152
  1

281
     0
 71
     1
 74
     0
110
0.0
120
0.0
130
0.0
111
1.0
121
0.0
131
0.0
112
0.0
122
1.0
132
0.0
 79
     0
146
0.0
  0
ENDBLK
  5
134
330
131
100
AcDbEntity
  8
0
100
AcDbBlockEnd
  0
BLOCK
  5
149
330
147
100
AcDbEntity
  8
0
100
AcDbBlockBegin
  2
*Paper_Space4
 70
     0
 10
0.0
 20
0.0
 30
0.0
  3
*Paper_Space4
  1

  0
SPLINE
  5
14B
330
147
100
AcDbEntity
  8
0
  6
Continuous
 62
     7
370
    25
100
AcDbSpline
210
0.0
220
0.0
230
1.0
 70
     8
 71
     3
 72
    14
 73
    10
 74
     0
 42
0.000000001
 43
0.00000001
 40
0.0
 40
0.0
 40
0.0
 40
0.0
 40
0.25
 40
0.25
 40
0.5
 40
0.5
 40
0.75
 40
0.75
 40
1.0
 40
1.0
 40
1.0
 40
1.0
 10
-149.9999999999993
 20
197.9999999999986
 30
0.0
 10
-202.511378831999
 20
197.9999999999987
 30
0.0
 10
-252.8759906133722
 20
177.1382947364982
 30
0.0
 10
-327.1382947364975
 20
102.8759906133728
 30
0.0
 10
-347.999999999998
 20
52.5113788319997
 30
0.0
 10
-347.999999999998
 20
-52.51137883199962
 30
0.0
 10
-327.1382947364976
 20
-102.8759906133727
 30
0.0
 10
-252.8759906133722
 20
-177.1382947364981
 30
0.0
 10
-202.5113788319991
 20
-197.9999999999986
 30
0.0
 10
-149.9999999999994
 20
-197.9999999999986
 30
0.0
  0
SPLINE
  5
14D
330
147
100
AcDbEntity
  8
0
  6
Continuous
 62
     7
370
    25
100
AcDbSpline
210
0.0
220
0.0
230
1.0
 70
     8
 71
     3
 72
    14
 73
    10
 74
     0
 42
0.000000001
 43
0.00000001
 40
0.0
 40
0.0
 40
0.0
 40
0.0
 40
0.2499999999999996
 40
0.2499999999999996
 40
0.4999999999999997
 40
0.4999999999999997
 40
0.7499999999999998
 40
0.7499999999999998
 40
1.0
 40
1.0
 40
1.0
 40
1.0
 10
149.9999999999977
 20
-197.9999999999986
 30
0.0
 10
202.5113788319973
 20
-197.9999999999989
 30
0.0
 10
252.875990613371
 20
-177.1382947364987
 30
0.0
 10
327.1382947364969
 20
-102.8759906133738
 30
0.0
 10
347.9999999999978
 20
-52.51137883200042
 30
0.0
 10
347.9999999999983
 20
52.51137883199884
 30
0.0
 10
327.1382947364978
 20
102.8759906133724
 30
0.0
 10
252.8759906133726
 20
177.138294736498
 30
0.0
 10
202.5113788319991
 20
197.9999999999987
 30
0.0
 10
149.9999999999994
 20
197.9999999999986
 30
0.0
  0
CIRCLE
  5
14F
330
147
100
AcDbEntity
  8
0
  6
Continuous
 62
     7
370
    25
100
AcDbCircle
 10
0.0
 20
0.0
 30
0.0
 40
22.99999999999946
  0
LINE
  5
158
330
147
100
AcDbEntity
  8
0
  6
Continuous
 62
     7
370
    25
100
AcDbLine
 10
-150.0
 20
198.0
 30
0.0
 11
150.0
 21
198.0
 31
0.0
  0
LINE
  5
159
330
147
100
AcDbEntity
  8
0
  6
Continuous
 62
     7
370
    25
100
AcDbLine
 10
150.0
 20
-198.0
 30
0.0
 11
-150.0
 21
-198.0
 31
0.0
  0
LINE
  5
15A
330
147
100
AcDbEntity
  8
0
  6
Continuous
 62
     7
370
    25
100
AcDbLine
 10
150.0
 20
-200.0
 30
0.0
 11
150.0
 21
-198.0
 31
0.0
  0
LINE
  5
15B
330
147
100
AcDbEntity
  8
0
  6
Continuous
 62
     7
370
    25
100
AcDbLine
 10
-150.0
 20
-200.0
 30
0.0
 11
150.0
 21
-200.0
 31
0.0
  0
LINE
  5
15C
330
147
100
AcDbEntity
  8
0
  6
Continuous
 62
     7
370
    25
100
AcDbLine
 10
-150.0
 20
-200.0
 30
0.0
 11
-150.0
 21
-198.0
 31
0.0
  0
LINE
  5
15D
330
147
100
AcDbEntity
  8
0
  6
Continuous
 62
     7
370
    25
100
AcDbLine
 10
150.0
 20
200.0
 30
0.0
 11
-150.0
 21
200.0
 31
0.0
  0
LINE
  5
15E
330
147
100
AcDbEntity
  8
0
  6
Continuous
 62
     7
370
    25
100
AcDbLine
 10
150.0
 20
200.0
 30
0.0
 11
150.0
 21
198.0
 31
0.0
  0
LINE
  5
15F
330
147
100
AcDbEntity
  8
0
  6
Continuous
 62
     7
370
    25
100
AcDbLine
 10
-150.0
 20
198.0
 30
0.0
 11
-150.0
 21
200.0
 31
0.0
  0
ARC
  5
160
330
147
100
AcDbEntity
  8
0
  6
Continuous
 62
     7
370
    25
100
AcDbCircle
 10
150.0
 20
0.0
 30
0.0
 40
200.0000000000011
100
AcDbArc
 50
270.0
 51
90.0
  0
ARC
  5
161
330
147
100
AcDbEntity
  8
0
  6
Continuous
 62
     7
370
    25
100
AcDbCircle
 10
-150.0
 20
0.0
 30
0.0
 40
200.0000000000011
100
AcDbArc
 50
90.0
 51
270.0
  0
VIEWPORT
  5
27A
330
147
100
AcDbEntity
  8
0
100
AcDbViewport
 10
0.0
 20
0.0
 30
0.0
 40
205.6
 41
156.0
 68
     1
 69
     1
 12
0.0
 22
0.0
 13
0.0
 23
0.0
 14
10.0
 24
10.0
 15
10.0
 25
10.0
 16
0.0
 26
0.0
 36
1.0
 17
0.0
 27
0.0
 37
0.0
 42
50.0
 43
0.0
 44
0.0
 45
541.7509727626
 50
0.0
 51
0.0
 72
   100
 90
   557152
  1

281
     0
 71
     1
 74
     0
110
0.0
120
0.0
130
0.0
111
1.0
121
0.0
131
0.0
112
0.0
122
1.0
132
0.0
 79
     0
146
0.0
  0
ENDBLK
  5
14A
330
147
100
AcDbEntity
  8
0
100
AcDbBlockEnd
  0
BLOCK
  5
164
330
162
100
AcDbEntity
  8
0
100
AcDbBlockBegin
  2
*Paper_Space5
 70
     0
 10
0.0
 20
0.0
 30
0.0
  3
*Paper_Space5
  1

  0
SPLINE
  5
166
330
162
100
AcDbEntity
  8
0
  6
Continuous
 62
     7
370
    25
100
AcDbSpline
210
0.0
220
0.0
230
1.0
 70
     8
 71
     3
 72
    26
 73
    22
 74
     0
 42
0.000000001
 43
0.00000001
 40
0.0
 40
0.0
 40
0.0
 40
0.0
 40
0.0033631255855867
 40
0.0646459944162712
 40
0.126431786052842
 40
0.188712086101102
 40
0.2514677056733453
 40
0.3146699816218663
 40
0.371488771554455
 40
0.4283414148204721
 40
0.4852182337413773
 40
0.5421140879949092
 40
0.5990239526741968
 40
0.655943117665127
 40
0.7128672949921476
 40
0.7697926558866769
 40
0.8267158157281782
 40
0.8836337826920623
 40
0.9405438155924639
 40
0.997442816078562
 40
1.0
 40
1.0
 40
1.0
 40
1.0
 10
304.4539260764718
 20
49.85622683646868
 30
0.0
 10
304.4378857991708
 20
49.94263624605372
 30
0.0
 10
304.1295596155502
 20
51.60359777347514
 30
0.0
 10
303.2214260129911
 20
54.8278615772772
 30
0.0
 10
301.6983754370023
 20
59.52835097940404
 30
0.0
 10
299.7936364668695
 20
64.21758043106541
 30
0.0
 10
297.5515450138867
 20
68.88832815410507
 30
0.0
 10
295.050551840699
 20
73.36190219071247
 30
0.0
 10
292.3395322119705
 20
77.6271927687229
 30
0.0
 10
289.463194902425
 20
81.67614911318269
 30
0.0
 10
286.3277240560247
 20
85.65762126548277
 30
0.0
 10
282.937871682358
 20
89.56577895654597
 30
0.0
 10
279.2987510106229
 20
93.39504872024222
 30
0.0
 10
275.4158586638029
 20
97.1400548958056
 30
0.0
 10
271.2948480640512
 20
100.7954779712436
 30
0.0
 10
266.9423866249219
 20
104.356586541006
 30
0.0
 10
262.3628658643966
 20
107.8172520535413
 30
0.0
 10
257.5706362321562
 20
111.1773478657004
 30
0.0
 10
252.5443386368106
 20
114.4151154499165
 30
0.0
 10
249.0355107200645
 20
116.5796647666117
 30
0.0
 10
247.1499061228407
 20
117.6300430699233
 30
0.0
 10
247.0688071117578
 20
117.6752193713531
 30
0.0
  0
SPLINE
  5
168
330
162
100
AcDbEntity
  8
0
  6
Continuous
 62
     7
370
    25
100
AcDbSpline
210
0.0
220
0.0
230
1.0
 70
     8
 71
     3
 72
    30
 73
    26
 74
     0
 42
0.000000001
 43
0.00000001
 40
0.0
 40
0.0
 40
0.0
 40
0.0
 40
0.0546895778345885
 40
0.0763832545199623
 40
0.112448040790666
 40
0.1498169963313974
 40
0.1898483490896456
 40
0.2315834504118849
 40
0.2746362918614877
 40
0.3186981218923124
 40
0.3635489944641522
 40
0.40902577558952
 40
0.4550052852836931
 40
0.5013927680570176
 40
0.5481141440396398
 40
0.5951106819717187
 40
0.6423352739866612
 40
0.6897497896004615
 40
0.7373231720776259
 40
0.7850300563745568
 40
0.8328497616376797
 40
0.880765558959265
 40
0.9287641464994164
 40
0.9768352850689733
 40
1.0
 40
1.0
 40
1.0
 40
1.0
 10
106.0660171779822
 20
-72.383421222063
 30
0.0
 10
103.3677046338421
 20
-72.36523265860357
 30
0.0
 10
99.59905433530007
 20
-72.339829250366
 30
0.0
 10
94.0588089631922
 20
-72.17108945187549
 30
0.0
 10
89.37812894246281
 20
-71.97165788204762
 30
0.0
 10
83.80958362271035
 20
-71.63915203884324
 30
0.0
 10
77.98381727470118
 20
-71.18818935688198
 30
0.0
 10
71.9096921735154
 20
-70.60274030088814
 30
0.0
 10
65.67798656643188
 20
-69.87833798493676
 30
0.0
 10
59.34361429365863
 20
-69.01091081517899
 30
0.0
 10
52.95067225267915
 20
-67.99820600724938
 30
0.0
 10
46.53422069410922
 20
-66.83908068204279
 30
0.0
 10
40.12317436918837
 20
-65.53330485440628
 30
0.0
 10
33.74202479606961
 20
-64.08137741203653
 30
0.0
 10
27.41200578686452
 20
-62.48440378831939
 30
0.0
 10
21.15188119244948
 20
-60.74400506071703
 30
0.0
 10
14.97849784380351
 20
-58.86224398983343
 30
0.0
 10
8.907139391471503
 20
-56.84158579528872
 30
0.0
 10
2.951905865012066
 20
-54.68479232849456
 30
0.0
 10
-2.874493323614391
 20
-52.39510957134043
 30
0.0
 10
-8.559086011406064
 20
-49.97538449856015
 30
0.0
 10
-14.09418828154113
 20
-47.43121047715157
 30
0.0
 10
-19.45615306536023
 20
-44.75900280388276
 30
0.0
 10
-23.7791523659355
 20
-42.46988463648611
 30
0.0
 10
-26.23976072471873
 20
-41.03213224010127
 30
0.0
 10
-27.03990964393742
 20
-40.5645990701171
 30
0.0
  0
SPLINE
  5
169
330
162
100
AcDbEntity
  8
0
  6
Continuous
 62
     7
370
    25
100
AcDbSpline
210
0.0
220
0.0
230
1.0
 70
     8
 71
     3
 72
    43
 73
    39
 74
     0
 42
0.000000001
 43
0.00000001
 40
0.0
 40
0.0
 40
0.0
 40
0.0
 40
0.0077317703714834
 40
0.0372903111197521
 40
0.0668071188819253
 40
0.0962848303748907
 40
0.1257286203917708
 40
0.1551437294096774
 40
0.1845351530610634
 40
0.2139074382775227
 40
0.2432645672789362
 40
0.2726099069406754
 40
0.3019462028374966
 40
0.3312756007017643
 40
0.3605996817951411
 40
0.3899191006984143
 40
0.4192345115079971
 40
0.4485461038074104
 40
0.477853595930898
 40
0.5071562305492644
 40
0.5364527407632056
 40
0.5657412797034582
 40
0.5950192984114432
 40
0.6242833470858249
 40
0.6535287573462368
 40
0.682749130823644
 40
0.7119354967014211
 40
0.7410748725856063
 40
0.7701476831175891
 40
0.7991228296813124
 40
0.8279474849564312
 40
0.8565236266509839
 40
0.8846457869710124
 40
0.9117974438885882
 40
0.9375787689164147
 40
0.955843140616875
 40
0.9745817599501623
 40
1.0
 40
1.0
 40
1.0
 40
1.0
 10
287.6000512508883
 20
7.958539005598612
 30
0.0
 10
287.4492253959572
 20
7.60786106845366
 30
0.0
 10
286.7217926366989
 20
5.916542165967847
 30
0.0
 10
285.1283975153712
 20
2.925421160720622
 30
0.0
 10
282.8382991899719
 20
-1.007294609624974
 30
0.0
 10
280.2617751141057
 20
-4.882016760094129
 30
0.0
 10
277.4335278942367
 20
-8.697441939728865
 30
0.0
 10
274.3494805882796
 20
-12.44731098861705
 30
0.0
 10
271.0162806989853
 20
-16.12672906371122
 30
0.0
 10
267.4381082107671
 20
-19.73044553776764
 30
0.0
 10
263.6202351401091
 20
-23.2533219407234
 30
0.0
 10
259.5680965237242
 20
-26.69022364662589
 30
0.0
 10
255.2875554633869
 20
-30.03607135392625
 30
0.0
 10
250.7848418760066
 20
-33.28585250279099
 30
0.0
 10
246.0665945345921
 20
-36.43462968862621
 30
0.0
 10
241.1398333419992
 20
-39.47757920102445
 30
0.0
 10
236.0119564399963
 20
-42.41000912760725
 30
0.0
 10
230.6907107943588
 20
-45.22738687369151
 30
0.0
 10
225.1842173513784
 20
-47.9253360615273
 30
0.0
 10
219.5009722347996
 20
-50.49964943520184
 30
0.0
 10
213.6498511764241
 20
-52.94630081085695
 30
0.0
 10
207.6401213640824
 20
-55.26145542424197
 30
0.0
 10
201.4814649695774
 20
-57.44147886168957
 30
0.0
 10
195.1840214231216
 20
-59.48294461463433
 30
0.0
 10
188.7584603589913
 20
-61.38264019954524
 30
0.0
 10
182.2161063684784
 20
-63.1375715567607
 30
0.0
 10
175.5691550060561
 20
-64.74496510169342
 30
0.0
 10
168.8310582166912
 20
-66.20226556575088
 30
0.0
 10
162.0172450791746
 20
-67.50712666522757
 30
0.0
 10
155.146563025809
 20
-68.6573814619303
 30
0.0
 10
148.2444341864102
 20
-69.65097714459529
 30
0.0
 10
141.3507279191397
 20
-70.48573765652587
 30
0.0
 10
134.543510760702
 20
-71.15874783433276
 30
0.0
 10
127.9265099698531
 20
-71.67117254515948
 30
0.0
 10
122.0905743602405
 20
-72.00521364727406
 30
0.0
 10
116.9321409931654
 20
-72.2123247602938
 30
0.0
 10
111.7962546163592
 20
-72.3522906549141
 30
0.0
 10
108.1594752102136
 20
-72.3720481268734
 30
0.0
 10
106.0660171779822
 20
-72.383421222063
 30
0.0
  0
SPLINE
  5
16A
330
162
100
AcDbEntity
  8
0
  6
Continuous
 62
     7
370
    25
100
AcDbSpline
210
0.0
220
0.0
230
1.0
 70
     8
 71
     3
 72
    29
 73
    25
 74
     0
 42
0.000000001
 43
0.00000001
 40
0.0
 40
0.0
 40
0.0
 40
0.0
 40
0.0457536536294602
 40
0.0936479148225385
 40
0.1415273142140205
 40
0.1893896606431045
 40
0.23723237485471
 40
0.2850522999881736
 40
0.3328454460439491
 40
0.3806066291528004
 40
0.4283289403158527
 40
0.4760029302656869
 40
0.5236153047265312
 40
0.5711467368706831
 40
0.6185679984358927
 40
0.6658326653453949
 40
0.7128622310051351
 40
0.7595124719604981
 40
0.8054863314960076
 40
0.8500591683778265
 40
0.8908653219461109
 40
0.9227952607308395
 40
0.9526000598189814
 40
1.0
 40
1.0
 40
1.0
 40
1.0
 10
-34.93677817251852
 20
-142.1515356966534
 30
0.0
 10
-33.22763907624314
 20
-143.1199507119789
 30
0.0
 10
-29.72939795643872
 20
-145.1020885233663
 30
0.0
 10
-24.20259990891208
 20
-147.9477245199516
 30
0.0
 10
-18.42691412983495
 20
-150.7206424214917
 30
0.0
 10
-12.47488896180915
 20
-153.3619173832215
 30
0.0
 10
-6.360698293065459
 20
-155.8711709961414
 30
0.0
 10
-0.0920410310513153
 20
-158.2441621281109
 30
0.0
 10
6.321201999128251
 20
-160.4779097910072
 30
0.0
 10
12.86923156931053
 20
-162.5693264988616
 30
0.0
 10
19.54163554650584
 20
-164.5155889872738
 30
0.0
 10
26.32742970470467
 20
-166.3140427767509
 30
0.0
 10
33.2148025700538
 20
-167.9622297050445
 30
0.0
 10
40.19075771442748
 20
-169.457878661437
 30
0.0
 10
47.24042939501764
 20
-170.7988991942819
 30
0.0
 10
54.34574121699347
 20
-171.9833544604362
 30
0.0
 10
61.48251416942357
 20
-173.0094057894785
 30
0.0
 10
68.61341895639532
 20
-173.8751032544789
 30
0.0
 10
75.66740093451045
 20
-174.5778993153139
 30
0.0
 10
82.45770573839899
 20
-175.1114644612173
 30
0.0
 10
88.54591064534713
 20
-175.4708881259567
 30
0.0
 10
93.88055025252861
 20
-175.6954078432123
 30
0.0
 10
99.56647024279464
 20
-175.8614292635283
 30
0.0
 10
103.5935728260453
 20
-175.8856335226231
 30
0.0
 10
106.0660171779835
 20
-175.9004937558688
 30
0.0
  0
SPLINE
  5
16B
330
162
100
AcDbEntity
  8
0
  6
Continuous
 62
     7
370
    25
100
AcDbSpline
210
0.0
220
0.0
230
1.0
 70
     8
 71
     3
 72
    48
 73
    44
 74
     0
 42
0.000000001
 43
0.00000001
 40
0.0
 40
0.0
 40
0.0
 40
0.0
 40
0.0290086626675426
 40
0.0405089821365663
 40
0.0596293800854497
 40
0.0794415555276743
 40
0.1006663638882293
 40
0.1227963702700962
 40
0.1456275564170784
 40
0.1689968219716785
 40
0.1927880976464217
 40
0.2169153982177267
 40
0.241313889518236
 40
0.265933777162268
 40
0.2907361962895776
 40
0.3156903823785708
 40
0.3407716883791647
 40
0.3659601709147221
 40
0.391239566603316
 40
0.4165965409095257
 40
0.4420201309153661
 40
0.4675013285793497
 40
0.4930327676019949
 40
0.5186084880780103
 40
0.5442237606300349
 40
0.5698749569082332
 40
0.595559456980588
 40
0.6212755867385966
 40
0.6470222573140315
 40
0.6727995103530804
 40
0.6986082733023775
 40
0.7244503803490282
 40
0.7503286123851466
 40
0.7762467546985011
 40
0.8022096721689213
 40
0.8282234009018191
 40
0.8542952532930138
 40
0.8804339300059869
 40
0.9066496268886912
 40
0.9329541174225259
 40
0.9593607824962488
 40
0.985884550728584
 40
1.0
 40
1.0
 40
1.0
 40
1.0
 10
106.0660171779835
 20
-175.9004937558688
 30
0.0
 10
108.8522962170707
 20
-175.8821351862401
 30
0.0
 10
112.7431797478085
 20
-175.8564984660069
 30
0.0
 10
118.4630088325469
 20
-175.6862280621355
 30
0.0
 10
123.294679819064
 20
-175.4850508757951
 30
0.0
 10
129.0440009290556
 20
-175.1496204864466
 30
0.0
 10
135.0605246303137
 20
-174.6946370692962
 30
0.0
 10
141.3359031519574
 20
-174.1038455745955
 30
0.0
 10
147.7771997349979
 20
-173.3726210157857
 30
0.0
 10
154.3284961461395
 20
-172.4967043671703
 30
0.0
 10
160.9450282220942
 20
-171.4736382632811
 30
0.0
 10
167.5913443063365
 20
-170.3020522099933
 30
0.0
 10
174.2383166305275
 20
-168.9814640385432
 30
0.0
 10
180.8613591576345
 20
-167.5120944234788
 30
0.0
 10
187.4392207111
 20
-165.8947441074607
 30
0.0
 10
193.9531653240351
 20
-164.1307015164676
 30
0.0
 10
200.3864047641176
 20
-162.2216731340355
 30
0.0
 10
206.7236989806276
 20
-160.1697286630477
 30
0.0
 10
212.9510702709862
 20
-157.9772565125087
 30
0.0
 10
219.05559567601
 20
-155.6469263906534
 30
0.0
 10
225.0252539327673
 20
-153.1816568554054
 30
0.0
 10
230.848810885406
 20
-150.5845863095719
 30
0.0
 10
236.5157321880008
 20
-147.8590463818713
 30
0.0
 10
242.016115397147
 20
-145.0085369489765
 30
0.0
 10
247.3406357431591
 20
-142.0367022860613
 30
0.0
 10
252.4805013616994
 20
-138.947308011865
 30
0.0
 10
257.4274147958607
 20
-135.7442186430393
 30
0.0
 10
262.1735184427529
 20
-132.4313895646667
 30
0.0
 10
266.7113806408142
 20
-129.0128375450098
 30
0.0
 10
271.0339643913598
 20
-125.4926209708214
 30
0.0
 10
275.1346109697469
 20
-121.8748054662543
 30
0.0
 10
279.0069903648325
 20
-118.1634562859361
 30
0.0
 10
282.6450635066227
 20
-114.3626215541769
 30
0.0
 10
286.0430450858556
 20
-110.4763177885763
 30
0.0
 10
289.1953491934234
 20
-106.5085168502158
 30
0.0
 10
292.0965821294014
 20
-102.4631404333632
 30
0.0
 10
294.7413403410247
 20
-98.34404263976455
 30
0.0
 10
297.1247194052552
 20
-94.1550580492222
 30
0.0
 10
299.2401409483924
 20
-89.89983160763344
 30
0.0
 10
301.0872187476693
 20
-85.58250254835943
 30
0.0
 10
302.6419547901447
 20
-81.20523280689697
 30
0.0
 10
303.7593358748418
 20
-77.47536111130472
 30
0.0
 10
304.2414477596953
 20
-75.19661992538525
 30
0.0
 10
304.4089024074913
 20
-74.4051318606959
 30
0.0
  0
SPLINE
  5
16E
330
162
100
AcDbEntity
  8
0
  6
Continuous
 62
     7
370
    25
100
AcDbSpline
210
0.0
220
0.0
230
1.0
 70
     8
 71
     3
 72
    29
 73
    25
 74
     0
 42
0.000000001
 43
0.00000001
 40
0.0
 40
0.0
 40
0.0
 40
0.0
 40
0.045753607844256
 40
0.0936478713353161
 40
0.1415272730240818
 40
0.189389621749648
 40
0.2372323382567773
 40
0.2850522656846563
 40
0.3328454140335813
 40
0.3806065994340535
 40
0.4283289128868362
 40
0.4760029051240893
 40
0.5236152818694014
 40
0.5711467162941385
 40
0.6185679801346458
 40
0.66583264931193
 40
0.7128622172281651
 40
0.7595124604218281
 40
0.8054863221631836
 40
0.8500591611836102
 40
0.890865316709796
 40
0.9227952570265547
 40
0.9526000575447678
 40
1.0
 40
1.0
 40
1.0
 40
1.0
 10
34.93677275579342
 20
240.13643614476
 30
0.0
 10
33.22763544554014
 20
241.1048501406022
 30
0.0
 10
29.72939610516252
 20
243.0869869283863
 30
0.0
 10
24.20259990279014
 20
245.932621942422
 30
0.0
 10
18.42691413147156
 20
248.7055398488088
 30
0.0
 10
12.4748889613662
 20
251.346814809241
 30
0.0
 10
6.360698293178007
 20
253.8560684225086
 30
0.0
 10
0.0920410310146225
 20
256.229059554385
 30
0.0
 10
-6.321201999125864
 20
258.4628072173064
 30
0.0
 10
-12.86923156931968
 20
260.5542239251539
 30
0.0
 10
-19.54163554651211
 20
262.5004864135677
 30
0.0
 10
-26.32742970471122
 20
264.298940203044
 30
0.0
 10
-33.21480257006026
 20
265.9471271313375
 30
0.0
 10
-40.1907577144342
 20
267.4427760877296
 30
0.0
 10
-47.24042939502457
 20
268.7837966205746
 30
0.0
 10
-54.34574121699993
 20
269.9682518867285
 30
0.0
 10
-61.48251416942957
 20
270.9943032157706
 30
0.0
 10
-68.61341895640045
 20
271.8600006807706
 30
0.0
 10
-75.66740093451425
 20
272.5627967416054
 30
0.0
 10
-82.45770573840166
 20
273.0963618875085
 30
0.0
 10
-88.54591064534941
 20
273.4557855522479
 30
0.0
 10
-93.88055025253293
 20
273.6803052695034
 30
0.0
 10
-99.56647024279765
 20
273.8463266898195
 30
0.0
 10
-103.5935728260462
 20
273.8705309489141
 30
0.0
 10
-106.0660171779813
 20
273.8853911821598
 30
0.0
  0
SPLINE
  5
16F
330
162
100
AcDbEntity
  8
0
  6
Continuous
 62
     7
370
    25
100
AcDbSpline
210
0.0
220
0.0
230
1.0
 70
     8
 71
     3
 72
    48
 73
    44
 74
     0
 42
0.000000001
 43
0.00000001
 40
0.0
 40
0.0
 40
0.0
 40
0.0
 40
0.029008662667543
 40
0.040508982136567
 40
0.0596293800854506
 40
0.0794415555276756
 40
0.1006663638882309
 40
0.122796370270092
 40
0.1456275564170809
 40
0.1689968219716814
 40
0.192788097646425
 40
0.2169153982177306
 40
0.2413138895182403
 40
0.2659337771622728
 40
0.2907361962895829
 40
0.3156903823785765
 40
0.3407716883791709
 40
0.3659601709147287
 40
0.3912395666033232
 40
0.4165965409095334
 40
0.4420201309153741
 40
0.4675013285793582
 40
0.493032767602004
 40
0.5186084880780198
 40
0.5442237606300447
 40
0.5698749569082436
 40
0.5955594569805976
 40
0.6212755867386068
 40
0.6470222573140321
 40
0.6727995103530865
 40
0.6986082733023788
 40
0.7244503803490308
 40
0.7503286123851503
 40
0.7762467546985004
 40
0.8022096721689219
 40
0.8282234009018269
 40
0.854295253293018
 40
0.8804339300059979
 40
0.9066496268887039
 40
0.9329541174225293
 40
0.9593607824962432
 40
0.9858845507285878
 40
1.0
 40
1.0
 40
1.0
 40
1.0
 10
-106.0660171779813
 20
273.8853911821598
 30
0.0
 10
-108.8522962170685
 20
273.8670326125311
 30
0.0
 10
-112.7431797478064
 20
273.841395892298
 30
0.0
 10
-118.4630088325446
 20
273.6711254884263
 30
0.0
 10
-123.2946798190617
 20
273.469948302086
 30
0.0
 10
-129.0440009290533
 20
273.1345179127374
 30
0.0
 10
-135.0605246303109
 20
272.6795344955872
 30
0.0
 10
-141.3359031519545
 20
272.0887430008865
 30
0.0
 10
-147.777199734995
 20
271.3575184420768
 30
0.0
 10
-154.3284961461372
 20
270.4816017934613
 30
0.0
 10
-160.9450282220919
 20
269.4585356895719
 30
0.0
 10
-167.5913443063342
 20
268.2869496362842
 30
0.0
 10
-174.2383166305253
 20
266.9663614648341
 30
0.0
 10
-180.8613591576323
 20
265.4969918497698
 30
0.0
 10
-187.4392207110977
 20
263.8796415337516
 30
0.0
 10
-193.9531653240328
 20
262.1155989427585
 30
0.0
 10
-200.3864047641154
 20
260.2065705603266
 30
0.0
 10
-206.7236989806253
 20
258.1546260893386
 30
0.0
 10
-212.951070270984
 20
255.9621539387997
 30
0.0
 10
-219.0555956760077
 20
253.6318238169443
 30
0.0
 10
-225.0252539327651
 20
251.1665542816964
 30
0.0
 10
-230.8488108854037
 20
248.569483735863
 30
0.0
 10
-236.5157321879985
 20
245.8439438081623
 30
0.0
 10
-242.0161153971448
 20
242.9934343752676
 30
0.0
 10
-247.3406357431569
 20
240.0215997123522
 30
0.0
 10
-252.4805013616971
 20
236.9322054381561
 30
0.0
 10
-257.4274147958583
 20
233.7291160693304
 30
0.0
 10
-262.1735184427498
 20
230.4162869909583
 30
0.0
 10
-266.711380640811
 20
226.9977349713017
 30
0.0
 10
-271.033964391356
 20
223.4775183971137
 30
0.0
 10
-275.1346109697431
 20
219.8597028925465
 30
0.0
 10
-279.0069903648287
 20
216.1483537122287
 30
0.0
 10
-282.6450635066189
 20
212.3475189804695
 30
0.0
 10
-286.0430450858516
 20
208.4612152148692
 30
0.0
 10
-289.1953491934198
 20
204.4934142765086
 30
0.0
 10
-292.0965821293979
 20
200.4480378596558
 30
0.0
 10
-294.7413403410218
 20
196.3289400660569
 30
0.0
 10
-297.1247194052522
 20
192.1399554755142
 30
0.0
 10
-299.2401409483896
 20
187.8847290339257
 30
0.0
 10
-301.0872187476664
 20
183.5673999746526
 30
0.0
 10
-302.6419547901415
 20
179.1901302331906
 30
0.0
 10
-303.7593358748389
 20
175.4602585375988
 30
0.0
 10
-304.2414477596924
 20
173.1815173516789
 30
0.0
 10
-304.4089024074884
 20
172.3900292869898
 30
0.0
  0
SPLINE
  5
171
330
162
100
AcDbEntity
  8
0
  6
Continuous
 62
     7
370
    25
100
AcDbSpline
210
0.0
220
0.0
230
1.0
 70
     8
 71
     3
 72
    22
 73
    18
 74
     0
 42
0.000000001
 43
0.00000001
 40
0.0
 40
0.0
 40
0.0
 40
0.0
 40
0.0368303350325099
 40
0.1079152138699901
 40
0.1790861510084126
 40
0.2503438027874594
 40
0.3216922954790555
 40
0.393140673534705
 40
0.4647025137451471
 40
0.5363962695867747
 40
0.6082456008148852
 40
0.6802796696177787
 40
0.7525333428658821
 40
0.8250472216766332
 40
0.8978673991826838
 40
0.9710448301861563
 40
0.9999999999999999
 40
0.9999999999999999
 40
0.9999999999999999
 40
0.9999999999999999
 10
-239.171943999898
 20
81.8966177032876
 30
0.0
 10
-240.0441166032717
 20
82.39522566968986
 30
0.0
 10
-242.5996375601548
 20
83.85617858483674
 30
0.0
 10
-246.628069734792
 20
86.39723636515832
 30
0.0
 10
-251.2634872862481
 20
89.50794077148868
 30
0.0
 10
-255.6834570804277
 20
92.72521066310631
 30
0.0
 10
-259.8934973732815
 20
96.03763176143491
 30
0.0
 10
-263.8837912169306
 20
99.44270727437657
 30
0.0
 10
-267.64920619409
 20
102.9356433077977
 30
0.0
 10
-271.1838971503137
 20
106.5124034633104
 30
0.0
 10
-274.4825186554691
 20
110.1689646493219
 30
0.0
 10
-277.540434841254
 20
113.9014925227949
 30
0.0
 10
-280.351241754643
 20
117.7066404434922
 30
0.0
 10
-282.916011612726
 20
121.5803897275529
 30
0.0
 10
-285.2080141070485
 20
125.5225658197915
 30
0.0
 10
-286.8785381536768
 20
128.7073654357915
 30
0.0
 10
-287.6855817244456
 20
130.5890530355321
 30
0.0
 10
-287.9143831399758
 20
131.12252210957
 30
0.0
  0
SPLINE
  5
173
330
162
100
AcDbEntity
  8
0
  6
Continuous
 62
     7
370
    25
100
AcDbSpline
210
0.0
220
0.0
230
1.0
 70
     8
 71
     3
 72
    26
 73
    22
 74
     0
 42
0.000000001
 43
0.00000001
 40
0.0
 40
0.0
 40
0.0
 40
0.0
 40
0.0033631255855979
 40
0.064645994416292
 40
0.126431786052858
 40
0.1887120861011121
 40
0.2514677056733743
 40
0.3146699816218869
 40
0.3714887715544837
 40
0.4283414148204932
 40
0.4852182337414082
 40
0.5421140879949439
 40
0.5990239526742209
 40
0.6559431176651549
 40
0.7128672949921749
 40
0.7697926558867108
 40
0.8267158157282142
 40
0.8836337826920982
 40
0.940543815592507
 40
0.9974428160786172
 40
1.0
 40
1.0
 40
1.0
 40
1.0
 10
-304.4539260764686
 20
48.12867058981762
 30
0.0
 10
-304.4378857991675
 20
48.0422611802323
 30
0.0
 10
-304.1295596155474
 20
46.38129965281049
 30
0.0
 10
-303.221426012987
 20
43.15703584900818
 30
0.0
 10
-301.6983754369982
 20
38.45654644688172
 30
0.0
 10
-299.793636466865
 20
33.76731699522044
 30
0.0
 10
-297.5515450138819
 20
29.09656927218104
 30
0.0
 10
-295.0505518406937
 20
24.62299523557354
 30
0.0
 10
-292.3395322119653
 20
20.35770465756362
 30
0.0
 10
-289.4631949024194
 20
16.30874831310386
 30
0.0
 10
-286.3277240560189
 20
12.32727616080402
 30
0.0
 10
-282.9378716823521
 20
8.419118469740999
 30
0.0
 10
-279.2987510106174
 20
4.589848706045147
 30
0.0
 10
-275.4158586637972
 20
0.8448425304822121
 30
0.0
 10
-271.2948480640455
 20
-2.810580544955657
 30
0.0
 10
-266.9423866249161
 20
-6.371689114717915
 30
0.0
 10
-262.3628658643906
 20
-9.832354627253098
 30
0.0
 10
-257.5706362321499
 20
-13.19245043941218
 30
0.0
 10
-252.544338636804
 20
-16.43021802362824
 30
0.0
 10
-249.0355107200591
 20
-18.59476734032278
 30
0.0
 10
-247.1499061228366
 20
-19.64514564363344
 30
0.0
 10
-247.0688071117555
 20
-19.69032194506218
 30
0.0
  0
SPLINE
  5
174
330
162
100
AcDbEntity
  8
0
  6
Continuous
 62
     7
370
    25
100
AcDbSpline
210
0.0
220
0.0
230
1.0
 70
     8
 71
     3
 72
    14
 73
    10
 74
     0
 42
0.000000001
 43
0.00000001
 40
0.0
 40
0.0
 40
0.0
 40
0.0
 40
0.25
 40
0.25
 40
0.5
 40
0.5
 40
0.75
 40
0.75
 40
1.0
 40
1.0
 40
1.0
 40
1.0
 10
-33.94112549695417
 20
-44.07011403086068
 30
0.0
 10
3.190026564608789
 20
-65.50547185158082
 30
0.0
 10
53.55463834598228
 20
-77.54867795335004
 30
0.0
 10
158.5773960099825
 20
-77.54867795335021
 30
0.0
 10
208.9420077913561
 20
-65.505471851581
 30
0.0
 10
283.2043119144822
 20
-22.63475621014087
 30
0.0
 10
304.066017177983
 20
6.440115295204794
 30
0.0
 10
304.0660171779832
 20
67.06846278396988
 30
0.0
 10
283.2043119144826
 20
96.1433342893156
 30
0.0
 10
246.0731598529196
 20
117.5786921100357
 30
0.0
  0
SPLINE
  5
17A
330
162
100
AcDbEntity
  8
0
  6
Continuous
 62
     7
370
    25
100
AcDbSpline
210
0.0
220
0.0
230
1.0
 70
     8
 71
     3
 72
    64
 73
    60
 74
     0
 42
0.000000001
 43
0.00000001
 40
0.0
 40
0.0
 40
0.0
 40
0.0
 40
0.0023885885243194
 40
0.0047765177248717
 40
0.0071639217279585
 40
0.0095509347484142
 40
0.0119376910670317
 40
0.0143243250079329
 40
0.0167109709159024
 40
0.0190977631337041
 40
0.0214848359793994
 40
0.0238723237236857
 40
0.026260360567276
 40
0.0286490806183362
 40
0.0434544145213859
 40
0.0582606233425627
 40
0.0735060597266646
 40
0.088752364591069
 40
0.1043850313807701
 40
0.1200185552691841
 40
0.1359754356819927
 40
0.1519331905748459
 40
0.1843415545732702
 40
0.2170946803745513
 40
0.2500229487749599
 40
0.2829512171753665
 40
0.3157043429766435
 40
0.3481127069750641
 40
0.380017308587126
 40
0.4112740653618535
 40
0.4417570570548415
 40
0.4713605868992761
 40
0.5000000644704581
 40
0.5286395420416401
 40
0.5582430718860776
 40
0.5887260635790628
 40
0.6199828203537959
 40
0.6518874219658497
 40
0.6842957859642755
 40
0.7170489117655453
 40
0.7499771801659563
 40
0.7829054485663609
 40
0.8156585743676456
 40
0.8480669383660698
 40
0.864023818469531
 40
0.8799815736927594
 40
0.8956142400704283
 40
0.9112477643923403
 40
0.9264932006656778
 40
0.941739505594975
 40
0.956544839461876
 40
0.9713510483485027
 40
0.9754453418533033
 40
0.9795379790893132
 40
0.9836296363079846
 40
0.9877209902467251
 40
0.9918127177934214
 40
0.9959054956505926
 40
1.0
 40
1.0
 40
1.0
 40
1.0
 10
240.1957827353088
 20
114.1857545207457
 30
0.0
 10
240.5304557494629
 20
113.9917149622293
 30
0.0
 10
241.1997093977442
 20
113.6036894060721
 30
0.0
 10
242.1938584833978
 20
113.0162370156736
 30
0.0
 10
243.1806779467268
 20
112.4249391586866
 30
0.0
 10
244.1594823277408
 20
111.8294001371194
 30
0.0
 10
245.1304552278224
 20
111.2297259516559
 30
0.0
 10
246.0935474460125
 20
110.6258882162256
 30
0.0
 10
247.0487721658444
 20
110.0178945296838
 30
0.0
 10
247.9961257922678
 20
109.4057429131239
 30
0.0
 10
248.9356094689942
 20
108.7894337187652
 30
0.0
 10
249.8672221643452
 20
108.1689675528454
 30
0.0
 10
250.7909668121947
 20
107.5443416741506
 30
0.0
 10
253.2935947759887
 20
105.8261966141985
 30
0.0
 10
257.2523444263638
 20
102.9546551392876
 30
0.0
 10
262.4705200125595
 20
98.784921853364
 30
0.0
 10
267.3908451888229
 20
94.4354030127637
 30
0.0
 10
272.0272613989135
 20
89.87298538901847
 30
0.0
 10
276.3116728954741
 20
85.14683027202818
 30
0.0
 10
280.2475495057603
 20
80.23086601100046
 30
0.0
 10
283.7813153849077
 20
75.17362749441314
 30
0.0
 10
287.9608814781827
 20
68.2030901514152
 30
0.0
 10
292.067999940814
 20
59.19302641946725
 30
0.0
 10
295.0784498856727
 20
48.06375415266393
 30
0.0
 10
296.0928842303289
 20
36.75426446250183
 30
0.0
 10
295.0785210634273
 20
25.44492197339571
 30
0.0
 10
292.0677182359333
 20
14.31521198935597
 30
0.0
 10
287.1545199054289
 20
3.535481254530973
 30
0.0
 10
280.487714518759
 20
-6.741728779477437
 30
0.0
 10
272.2598945465229
 20
-16.38813840973695
 30
0.0
 10
262.6943661719325
 20
-25.30393214536282
 30
0.0
 10
252.0312820353024
 20
-33.41947684069569
 30
0.0
 10
240.3768766163467
 20
-40.78171971382945
 30
0.0
 10
227.6237160709112
 20
-47.50966475385547
 30
0.0
 10
213.5656571075327
 20
-53.66533219886841
 30
0.0
 10
198.1213759475922
 20
-59.18739418911751
 30
0.0
 10
181.4114938068392
 20
-63.93721355636969
 30
0.0
 10
163.6089149213543
 20
-67.78587838485484
 30
0.0
 10
144.9358503313851
 20
-70.62220740848673
 30
0.0
 10
125.6565382115445
 20
-72.3603068828318
 30
0.0
 10
106.0660597524115
 20
-72.94588628022505
 30
0.0
 10
86.4753262996226
 20
-72.36026577765614
 30
0.0
 10
67.19677242921776
 20
-70.62237009314171
 30
0.0
 10
51.58936140781917
 20
-68.25140640663815
 30
0.0
 10
39.51472292219002
 20
-65.83860436581757
 30
0.0
 10
30.75453248815978
 20
-63.79864799393982
 30
0.0
 10
22.23874707941314
 20
-61.52647977465548
 30
0.0
 10
14.05206628477124
 20
-59.0531939763507
 30
0.0
 10
6.148717256211745
 20
-56.37660371754681
 30
0.0
 10
-1.385543850269899
 20
-53.5362225559317
 30
0.0
 10
-8.608681643153481
 20
-50.52377805629912
 30
0.0
 10
-13.84794863928901
 20
-48.11664901553525
 30
0.0
 10
-17.33481502524171
 20
-46.41484862702641
 30
0.0
 10
-19.17649753885718
 20
-45.49232030571935
 30
0.0
 10
-20.99700355763824
 20
-44.55640743480802
 30
0.0
 10
-22.79648868302697
 20
-43.60718860179025
 30
0.0
 10
-24.57441037428322
 20
-42.64435382580402
 30
0.0
 10
-26.33278291566415
 20
-41.6690652585238
 30
0.0
 10
-27.48667878222809
 20
-41.00785252494283
 30
0.0
 10
-28.06374837934215
 20
-40.67717644157103
 30
0.0
  0
SPLINE
  5
17C
330
162
100
AcDbEntity
  8
0
  6
Continuous
 62
     7
370
    25
100
AcDbSpline
210
0.0
220
0.0
230
1.0
 70
     8
 71
     3
 72
    64
 73
    60
 74
     0
 42
0.000000001
 43
0.00000001
 40
0.0
 40
0.0
 40
0.0
 40
0.0
 40
0.0023885885205236
 40
0.0047765177179702
 40
0.0071639217186416
 40
0.009550934737372
 40
0.0119376910549544
 40
0.0143243249955101
 40
0.0167109709038234
 40
0.0190977631226577
 40
0.0214848359700738
 40
0.0238723237167683
 40
0.0262603605634532
 40
0.0286490806182937
 40
0.043454414640685
 40
0.058260623342831
 40
0.0735060602441351
 40
0.0887523645919085
 40
0.1043850309531139
 40
0.1200185552671297
 40
0.1359754349882425
 40
0.1519331905751321
 40
0.1843415545735468
 40
0.2170946803748146
 40
0.2500229487752098
 40
0.2829512171756176
 40
0.3157043429768872
 40
0.3481127069753029
 40
0.3800173085873509
 40
0.4112740653620753
 40
0.4417570570550552
 40
0.4713605868994853
 40
0.5000000644706611
 40
0.528639542041837
 40
0.5582430718862642
 40
0.588726063579247
 40
0.6199828203539657
 40
0.6518874219660218
 40
0.6842957859644324
 40
0.7170489117657093
 40
0.7499771801661126
 40
0.7829054485665118
 40
0.8156585743677761
 40
0.8480669383661906
 40
0.864023818650811
 40
0.8799815736930564
 40
0.8956142403716404
 40
0.9112477643927528
 40
0.9264932009466044
 40
0.9417395055952226
 40
0.9565448395816459
 40
0.971351048348545
 40
0.9754453418594061
 40
0.9795379790994598
 40
0.9836296363201542
 40
0.9877209902588933
 40
0.9918127178035616
 40
0.995905495656677
 40
1.0
 40
1.0
 40
1.0
 40
1.0
 10
-240.1957827353053
 20
81.78404033183509
 30
0.0
 10
-240.5304557489262
 20
81.97807989004392
 30
0.0
 10
-241.1997093962379
 20
82.36610544564216
 30
0.0
 10
-242.1938584805822
 20
82.95355783528632
 30
0.0
 10
-243.1806779428925
 20
83.54485569168648
 30
0.0
 10
-244.1594823231785
 20
84.14039471283473
 30
0.0
 10
-245.1304552228229
 20
84.740068898047
 30
0.0
 10
-246.0935474408664
 20
85.34390663339391
 30
0.0
 10
-247.0487721608422
 20
85.9519003200201
 30
0.0
 10
-247.9961257877002
 20
86.56405193683221
 30
0.0
 10
-248.9356094651528
 20
87.18036113161035
 30
0.0
 10
-249.8672221615154
 20
87.80082729811978
 30
0.0
 10
-250.7909668106881
 20
88.42545317756286
 30
0.0
 10
-253.2935947908457
 20
90.14359824846719
 30
0.0
 10
-257.2523444468646
 20
93.01513972152459
 30
0.0
 10
-262.470520082222
 20
97.18487306012196
 30
0.0
 10
-267.3908452505629
 20
101.5343918873588
 30
0.0
 10
-272.0272614136349
 20
106.0968094707785
 30
0.0
 10
-276.3116728073142
 20
110.822964551036
 30
0.0
 10
-280.2475494198086
 20
115.7389287229
 30
0.0
 10
-283.7813153767327
 20
120.7961672751196
 30
0.0
 10
-287.9608814193503
 20
127.7667046288926
 30
0.0
 10
-292.0679999489897
 20
136.7767684314518
 30
0.0
 10
-295.0784498834475
 20
147.9060407003654
 30
0.0
 10
-296.0928842309183
 20
159.2155303899561
 30
0.0
 10
-295.0785210632579
 20
170.5248728792152
 30
0.0
 10
-292.0677182359821
 20
181.6545828632172
 30
0.0
 10
-287.1545199054106
 20
192.4343135980504
 30
0.0
 10
-280.4877145187666
 20
202.7115236320582
 30
0.0
 10
-272.2598945465153
 20
212.3579332623147
 30
0.0
 10
-262.6943661719355
 20
221.2737269979444
 30
0.0
 10
-252.031282035297
 20
229.3892716932738
 30
0.0
 10
-240.3768766163458
 20
236.7515145664103
 30
0.0
 10
-227.6237160709068
 20
243.4794596064334
 30
0.0
 10
-213.5656571075332
 20
249.6351270514504
 30
0.0
 10
-198.1213759475896
 20
255.1571890416949
 30
0.0
 10
-181.4114938068381
 20
259.9070084089505
 30
0.0
 10
-163.6089149213542
 20
263.7556732374341
 30
0.0
 10
-144.9358503313811
 20
266.5920022610706
 30
0.0
 10
-125.6565382115454
 20
268.3301017354041
 30
0.0
 10
-106.0660597523837
 20
268.9156811328313
 30
0.0
 10
-86.47532629969206
 20
268.3300606301217
 30
0.0
 10
-67.19677242893766
 20
266.5921649461457
 30
0.0
 10
-51.58936137376581
 20
264.2212012526964
 30
0.0
 10
-39.51472288706
 20
261.8083992131937
 30
0.0
 10
-30.75453240070267
 20
259.7684428240871
 30
0.0
 10
-22.23874702469766
 20
257.4962746131764
 30
0.0
 10
-14.05206618365687
 20
255.0229887967125
 30
0.0
 10
-6.148717210587462
 20
252.3463985514677
 30
0.0
 10
1.385543916568505
 20
249.5060173831898
 30
0.0
 10
8.608681659055332
 20
246.4935728982294
 30
0.0
 10
13.84794865881953
 20
244.0864438591275
 30
0.0
 10
17.33481502745725
 20
242.3846434782429
 30
0.0
 10
19.17649754283267
 20
241.4621151559888
 30
0.0
 10
20.99700356245932
 20
240.5262022845788
 30
0.0
 10
22.79648868785628
 20
239.5769834515674
 30
0.0
 10
24.57441037826161
 20
238.6141486760767
 30
0.0
 10
26.33278291794096
 20
237.6388601097871
 30
0.0
 10
27.48667878308471
 20
236.9776473770298
 30
0.0
 10
28.06374837934568
 20
236.6469712941518
 30
0.0
  0
SPLINE
  5
17F
330
162
100
AcDbEntity
  8
0
  6
Continuous
 62
     7
370
    25
100
AcDbSpline
210
0.0
220
0.0
230
1.0
 70
     8
 71
     3
 72
    14
 73
    10
 74
     0
 42
0.000000001
 43
0.00000001
 40
0.0
 40
0.0
 40
0.0
 40
0.0
 40
0.2499999999999996
 40
0.2499999999999996
 40
0.4999999999999997
 40
0.4999999999999997
 40
0.7499999999999998
 40
0.7499999999999998
 40
1.0
 40
1.0
 40
1.0
 40
1.0
 10
33.94112549695404
 20
240.0399088834417
 30
0.0
 10
-3.190026564608817
 20
261.4752667041614
 30
0.0
 10
-53.55463834598267
 20
273.5184728059305
 30
0.0
 10
-158.5773960099818
 20
273.51847280593
 30
0.0
 10
-208.9420077913553
 20
261.4752667041604
 30
0.0
 10
-283.2043119144797
 20
218.6045510627201
 30
0.0
 10
-304.0660171779797
 20
189.5296795573743
 30
0.0
 10
-304.0660171779783
 20
128.9013320686098
 30
0.0
 10
-283.2043119144768
 20
99.82646056326423
 30
0.0
 10
-246.0731598529136
 20
78.3911027425447
 30
0.0
  0
LWPOLYLINE
  5
182
330
162
100
AcDbEntity
  8
0
  6
Continuous
 62
     7
370
    25
100
AcDbPolyline
 90
       27
 70
   128
 43
0.0
 10
148.2855003943
 20
-27.8758705846
 10
153.2175341162
 20
-24.8757709303
 10
158.1353597942
 20
-21.5785194845
 10
163.0248103144
 20
-17.9936148629
 10
167.8718003052
 20
-14.1313843434
 10
172.662366714
 20
-10.0029541152
 10
177.3827090312
 20
-5.6202172272
 10
182.0192290468
 20
-0.9957993268
 10
186.5585700231
 20
3.856977712
 10
190.9876551729
 20
8.9241341653
 10
195.2937253302
 20
14.1910727319
 10
199.4643757069
 20
19.6426205849
 10
203.4875916277
 20
25.2630730807
 10
207.3517831416
 20
31.0362390008
 10
211.0458184101
 20
36.9454871946
 10
214.5590557755
 20
42.9737944903
 10
217.8813744167
 20
49.1037947344
 10
221.0032035051
 20
55.3178288194
 10
223.9155497759
 20
61.5979955562
 10
226.6100234359
 20
67.9262032427
 10
229.0788623321
 20
74.2842217818
 10
231.3149543129
 20
80.6537351986
 10
233.3118577165
 20
87.0163944039
 10
235.0638199279
 20
93.3538700539
 10
236.5657939507
 20
99.6479053529
 10
237.8134529467
 20
105.8803686466
 10
238.8032026998
 20
112.0333056555
  0
SPLINE
  5
187
330
162
100
AcDbEntity
  8
0
  6
Continuous
 62
     7
370
    25
100
AcDbSpline
210
0.0
220
0.0
230
1.0
 70
     8
 71
     3
 72
    14
 73
    10
 74
     0
 42
0.000000001
 43
0.00000001
 40
0.0
 40
0.0
 40
0.0
 40
0.0
 40
0.25
 40
0.25
 40
0.5
 40
0.5
 40
0.75
 40
0.75
 40
1.0
 40
1.0
 40
1.0
 40
1.0
 10
-63.84653396164473
 20
94.58534618884026
 30
0.0
 10
-75.04352021045482
 20
101.0492287626687
 30
0.0
 10
-90.23108736720987
 20
104.6808858922268
 30
0.0
 10
-121.9009469887534
 20
104.6808858922264
 30
0.0
 10
-137.0885141455082
 20
101.049228762668
 30
0.0
 10
-159.4824866431275
 20
88.12146361501051
 30
0.0
 10
-165.7733829389074
 20
79.35386771894191
 30
0.0
 10
-165.7733829389072
 20
61.07124691595072
 30
0.0
 10
-159.4824866431271
 20
52.30365101988215
 30
0.0
 10
-148.2855003943174
 20
45.83976844605349
 30
0.0
  0
LWPOLYLINE
  5
189
330
162
100
AcDbEntity
  8
0
  6
Continuous
 62
     7
370
    25
100
AcDbPolyline
 90
       63
 70
   128
 43
0.0
 10
-24.7487373415
 20
23.2690908876
 10
-22.1179713456
 20
24.6411943604
 10
-19.2602450333
 20
25.8526127847
 10
-16.2048825437
 20
26.8909153682
 10
-12.9832360304
 20
27.7454477213
 10
-9.6283639464
 20
28.4074411858
 10
-6.174691819
 20
28.8701028128
 10
-2.6576589979
 20
29.1286850681
 10
0.886645001
 20
29.1805345477
 10
4.4218508223
 20
29.0251192058
 10
7.9116824704
 20
28.6640338141
 10
11.3203295502
 20
28.1009835974
 10
14.61281473
 20
27.3417462129
 10
17.7553526563
 20
26.3941124634
 10
20.7156966375
 20
25.2678063537
 10
23.4634695385
 20
23.9743853086
 10
25.9704754908
 20
22.5271215782
 10
28.2109892209
 20
20.9408660469
 10
30.162020026
 20
19.231895843
 10
31.80354769
 20
17.4177473133
 10
33.1187279175
 20
15.5170360768
 10
34.0940651798
 20
13.5492660028
 10
34.7195511968
 20
11.5346290751
 10
34.9887676354
 20
9.4937981948
 10
34.8989519707
 20
7.4477150484
 10
34.4510258329
 20
5.4173752177
 10
33.6495855504
 20
3.423612737
 10
32.502854985
 20
1.4868863073
 10
31.0226011441
 20
-0.3729306375
 10
29.2240134351
 20
-2.1367538587
 10
27.1255478019
 20
-3.7864841433
 10
24.7487373415
 20
-5.3051930262
 10
22.1179713456
 20
-6.6772964989
 10
19.2602450333
 20
-7.8887149232
 10
16.2048825437
 20
-8.9270175067
 10
12.9832360304
 20
-9.7815498598
 10
9.6283639464
 20
-10.4435433243
 10
6.174691819
 20
-10.9062049513
 10
2.6576589979
 20
-11.1647872066
 10
-0.886645001
 20
-11.2166366862
 10
-4.4218508223
 20
-11.0612213443
 10
-7.9116824704
 20
-10.7001359526
 10
-11.3203295502
 20
-10.1370857359
 10
-14.61281473
 20
-9.3778483514
 10
-17.7553526563
 20
-8.430214602
 10
-20.7156966375
 20
-7.3039084923
 10
-23.4634695385
 20
-6.0104874471
 10
-25.9704754908
 20
-4.5632237167
 10
-28.2109892209
 20
-2.9769681854
 10
-30.162020026
 20
-1.2679979815
 10
-31.80354769
 20
0.5461505481
 10
-33.1187279175
 20
2.4468617846
 10
-34.0940651798
 20
4.4146318586
 10
-34.7195511968
 20
6.4292687864
 10
-34.9887676354
 20
8.4700996667
 10
-34.8989519707
 20
10.5161828131
 10
-34.4510258329
 20
12.5465226438
 10
-33.6495855504
 20
14.5402851245
 10
-32.502854985
 20
16.4770115542
 10
-31.0226011441
 20
18.336828499
 10
-29.2240134351
 20
20.1006517202
 10
-27.1255478019
 20
21.7503820048
 10
-24.7487373415
 20
23.2690908876
  0
LWPOLYLINE
  5
18A
330
162
100
AcDbEntity
  8
0
  6
Continuous
 62
     7
370
    25
100
AcDbPolyline
 90
       27
 70
   128
 43
0.0
 10
26.6711683439
 20
234.4945224289
 10
25.6814185907
 20
228.34158542
 10
24.4337595948
 20
222.1091221263
 10
22.9317855719
 20
215.8150868273
 10
21.1798233605
 20
209.4776111773
 10
19.1829199569
 20
203.114951972
 10
16.9468279762
 20
196.7454385552
 10
14.47798908
 20
190.3874200161
 10
11.78351542
 20
184.0592123297
 10
8.8711691491
 20
177.7790455928
 10
5.7493400607
 20
171.5650115078
 10
2.4270214196
 20
165.4350112637
 10
-1.0862159458
 20
159.406703968
 10
-4.7802512144
 20
153.4974557742
 10
-8.6444427283
 20
147.7242898541
 10
-12.667658649
 20
142.1038373583
 10
-16.8383090257
 20
136.6522895054
 10
-21.1443791831
 20
131.3853509387
 10
-25.5734643329
 20
126.3181944854
 10
-30.1128053092
 20
121.4654174466
 10
-34.7493253248
 20
116.8409995462
 10
-39.469667642
 20
112.4582626582
 10
-44.2602340507
 20
108.32983243
 10
-49.1072240415
 20
104.4676019105
 10
-53.9966745617
 20
100.8826972889
 10
-58.9145002397
 20
97.5854458431
 10
-63.8465339616
 20
94.5853461888
  0
LWPOLYLINE
  5
191
330
162
100
AcDbEntity
  8
0
  6
Continuous
 62
     7
370
    25
100
AcDbPolyline
 90
       41
 70
   128
 43
0.0
 10
15.1412333924
 20
-9.2345937469
 10
15.2101729024
 20
-9.1996479719
 10
17.2525546015
 20
-8.0206061137
 10
19.0228532083
 20
-6.703088224
 10
20.4931500563
 20
-5.2678723472
 10
21.6402576859
 20
-3.7375926948
 10
22.4460855246
 20
-2.1363826912
 10
22.8979251859
 20
-0.4894943747
 10
22.9886508884
 20
1.1770998422
 10
22.7168318337
 20
2.8371167731
 10
22.0867547706
 20
4.4643769595
 10
21.1083563907
 20
6.0332175359
 10
19.7970666211
 20
7.5188969495
 10
18.1735652846
 20
8.8979851483
 10
16.2634559673
 20
10.1487330876
 10
14.096862234
 20
11.2514157252
 10
11.7079525623
 20
12.1886430973
 10
9.1344014846
 20
12.9456345683
 10
6.4167954389
 20
13.5104519305
 10
3.5979926959
 20
13.8741876767
 10
0.7224474588
 20
14.0311054769
 10
-2.1644912063
 20
13.9787306437
 10
-5.0172945521
 20
13.7178891594
 10
-7.7909721656
 20
13.2526946501
 10
-10.441781494
 20
12.5904835111
 10
-12.9279176906
 20
11.7416992076
 10
-15.2101729024
 20
10.7197275751
 10
-17.2525546015
 20
9.5406857169
 10
-19.0228532083
 20
8.2231678272
 10
-20.4931500563
 20
6.7879519504
 10
-21.6402576859
 20
5.257672298
 10
-22.4460855246
 20
3.6564622945
 10
-22.8979251859
 20
2.0095739779
 10
-22.9886508884
 20
0.342979761
 10
-22.7168318337
 20
-1.3170371699
 10
-22.0867547706
 20
-2.9442973562
 10
-21.1083563907
 20
-4.5131379327
 10
-19.7970666211
 20
-5.9988173463
 10
-18.1735652846
 20
-7.3779055451
 10
-16.2634559673
 20
-8.6286534844
 10
-16.2634559673
 20
-8.6286534844
  0
LWPOLYLINE
  5
192
330
162
100
AcDbEntity
  8
0
  6
Continuous
 62
     7
370
    25
100
AcDbPolyline
 90
       27
 70
   128
 43
0.0
 10
-22.9905776509
 20
0.3800199008
 10
-22.9886508884
 20
0.4170600406
 10
-22.7168318337
 20
2.0770769715
 10
-22.0867547706
 20
3.7043371578
 10
-21.1083563907
 20
5.2731777343
 10
-19.7970666211
 20
6.7588571479
 10
-18.1735652846
 20
8.1379453467
 10
-16.2634559673
 20
9.388693286
 10
-14.096862234
 20
10.4913759236
 10
-11.7079525623
 20
11.4286032957
 10
-9.1344014846
 20
12.1855947667
 10
-6.4167954389
 20
12.7504121289
 10
-3.5979926959
 20
13.1141478751
 10
-0.7224474588
 20
13.2710656753
 10
2.1644912063
 20
13.2186908421
 10
5.0172945521
 20
12.9578493578
 10
7.7909721656
 20
12.4926548485
 10
10.441781494
 20
11.8304437094
 10
12.9279176906
 20
10.981659406
 10
15.2101729024
 20
9.9596877735
 10
17.2525546015
 20
8.7806459153
 10
19.0228532083
 20
7.4631280256
 10
20.4931500563
 20
6.0279121488
 10
21.6402576859
 20
4.4976324964
 10
22.4460855246
 20
2.8964224929
 10
22.8979251859
 20
1.2495341763
 10
22.9905776509
 20
0.3800199008
  0
LWPOLYLINE
  5
194
330
162
100
AcDbEntity
  8
0
  6
Continuous
 62
    60
370
    25
100
AcDbPolyline
 90
       55
 70
   128
 43
0.0
 10
304.4768473463
 20
20.5953078483
 10
304.2155852723
 20
19.4518209548
 10
302.9051387718
 20
14.6754384989
 10
301.2493695657
 20
9.9349248693
 10
299.2511824358
 20
5.2385965375
 10
296.9140828812
 20
0.5946924595
 10
294.2421709688
 20
-3.9886403792
 10
291.24013414
 20
-8.5033612552
 10
287.9132389874
 20
-12.941549814
 10
284.2673220157
 20
-17.2954199648
 10
280.308779402
 20
-21.5573335399
 10
276.0445557754
 20
-25.7198136947
 10
271.4821320329
 20
-29.7755580245
 10
266.6295122162
 20
-33.7174513757
 10
261.4952094694
 20
-37.5385783278
 10
256.0882311041
 20
-41.2322353257
 10
250.4180627977
 20
-44.79194244
 10
244.4946519521
 20
-48.2114547348
 10
238.3283902427
 20
-51.4847732236
 10
231.9300953879
 20
-54.6061553934
 10
225.3109921711
 20
-57.5701252793
 10
218.4826927484
 20
-60.3714830709
 10
211.4571762773
 20
-63.0053142347
 10
204.246767901
 20
-65.466998136
 10
196.8641171259
 20
-67.7522161446
 10
189.3221756301
 20
-69.8569592117
 10
181.6341745417
 20
-71.7775349026
 10
173.813601227
 20
-73.5105738752
 10
165.8741756292
 20
-75.05303579
 10
157.8298261985
 20
-76.4022146447
 10
149.6946654573
 20
-77.5557435213
 10
141.4829652419
 20
-78.511598738
 10
133.2091316648
 20
-79.2681034001
 10
124.8876798417
 20
-79.8239303412
 10
116.5332084266
 20
-80.1781044521
 10
108.1603740012
 20
-80.330004391
 10
99.7838653624
 20
-80.2793636738
 10
91.4183777525
 20
-80.0262711415
 10
83.0785870794
 20
-79.5711708045
 10
74.7791241699
 20
-78.9148610633
 10
66.5345491022
 20
-78.0584933083
 10
58.3593256623
 20
-77.0035698996
 10
50.2677959701
 20
-75.7519415311
 10
42.2741553184
 20
-74.3058039845
 10
34.3924272689
 20
-72.6676942763
 10
26.636439051
 20
-70.8404862076
 10
19.0197973035
 20
-68.8273853223
 10
11.5558642042
 20
-66.6319232833
 10
4.2577340279
 20
-64.2579516772
 10
-2.861789825
 20
-61.7096352567
 10
-9.7902172906
 20
-58.9914446349
 10
-16.5153935526
 20
-56.1081484416
 10
-23.0255203668
 20
-53.0648049583
 10
-29.3091767586
 20
-49.8667532434
 10
-35.3553390593
 20
-46.5196037665
  0
LWPOLYLINE
  5
195
330
162
100
AcDbEntity
  8
0
  6
Continuous
 62
    60
370
    25
100
AcDbPolyline
 90
       55
 70
   128
 43
0.0
 10
304.4768473463
 20
-74.1234263304
 10
304.2155852723
 20
-75.2669132239
 10
302.9051387718
 20
-80.0432956798
 10
301.2493695657
 20
-84.7838093095
 10
299.2511824358
 20
-89.4801376412
 10
296.9140828812
 20
-94.1240417193
 10
294.2421709688
 20
-98.7073745579
 10
291.24013414
 20
-103.2220954339
 10
287.9132389874
 20
-107.6602839928
 10
284.2673220157
 20
-112.0141541436
 10
280.308779402
 20
-116.2760677187
 10
276.0445557754
 20
-120.4385478734
 10
271.4821320329
 20
-124.4942922032
 10
266.6295122162
 20
-128.4361855544
 10
261.4952094694
 20
-132.2573125065
 10
256.0882311041
 20
-135.9509695045
 10
250.4180627977
 20
-139.5106766188
 10
244.4946519521
 20
-142.9301889136
 10
238.3283902427
 20
-146.2035074023
 10
231.930095388
 20
-149.3248895721
 10
225.3109921711
 20
-152.288859458
 10
218.4826927484
 20
-155.0902172496
 10
211.4571762773
 20
-157.7240484135
 10
204.246767901
 20
-160.1857323147
 10
196.8641171259
 20
-162.4709503233
 10
189.3221756301
 20
-164.5756933904
 10
181.6341745417
 20
-166.4962690814
 10
173.813601227
 20
-168.2293080539
 10
165.8741756292
 20
-169.7717699687
 10
157.8298261985
 20
-171.1209488235
 10
149.6946654573
 20
-172.2744777
 10
141.4829652419
 20
-173.2303329168
 10
133.2091316648
 20
-173.9868375788
 10
124.8876798417
 20
-174.54266452
 10
116.5332084266
 20
-174.8968386308
 10
108.1603740012
 20
-175.0487385697
 10
99.7838653624
 20
-174.9980978525
 10
91.4183777525
 20
-174.7450053203
 10
83.0785870794
 20
-174.2899049832
 10
74.7791241699
 20
-173.6335952421
 10
66.5345491022
 20
-172.7772274871
 10
58.3593256623
 20
-171.7223040783
 10
50.2677959701
 20
-170.4706757099
 10
42.2741553184
 20
-169.0245381632
 10
34.3924272689
 20
-167.386428455
 10
26.636439051
 20
-165.5592203863
 10
19.0197973035
 20
-163.546119501
 10
11.5558642042
 20
-161.3506574621
 10
4.2577340279
 20
-158.9766858559
 10
-2.861789825
 20
-156.4283694355
 10
-9.7902172906
 20
-153.7101788136
 10
-16.5153935526
 20
-150.8268826204
 10
-23.0255203668
 20
-147.783539137
 10
-29.3091767586
 20
-144.5854874222
 10
-35.3553390593
 20
-141.2383379452
  0
LWPOLYLINE
  5
196
330
162
100
AcDbEntity
  8
0
  6
Continuous
 62
    60
370
    25
100
AcDbPolyline
 90
       19
 70
   128
 43
0.0
 10
238.8032026998
 20
112.0333056555
 10
244.4667810244
 20
108.617926593
 10
249.8669056289
 20
105.0631840093
 10
254.993297069
 20
101.3758445591
 10
259.8361969674
 20
97.5629273025
 10
264.3863865889
 20
93.6316903442
 10
268.6352043888
 20
89.5896170172
 10
272.5745625011
 20
85.4444016379
 10
276.1969621336
 20
81.2039348593
 10
279.4955078428
 20
76.8762886509
 10
282.4639206594
 20
72.4697009333
 10
285.0965500409
 20
67.9925598966
 10
287.3883846277
 20
63.4533880333
 10
289.3350617823
 20
58.860825915
 10
290.9328758943
 20
54.2236157447
 10
292.1787854335
 20
49.5505847155
 10
293.0704187404
 20
44.8506282077
 10
293.6060785402
 20
40.1326928554
 10
293.7847233351
 20
35.4580327285
  0
SPLINE
  5
198
330
162
100
AcDbEntity
  8
0
  6
Continuous
 62
    60
370
    25
100
AcDbSpline
210
0.0
220
0.0
230
1.0
 70
     8
 71
     3
 72
    19
 73
    15
 74
     0
 42
0.000000001
 43
0.00000001
 40
0.0
 40
0.0
 40
0.0
 40
0.0
 40
0.0967568620946618
 40
0.1965141167862419
 40
0.2990678755179415
 40
0.3792475005175052
 40
0.4594201212429894
 40
0.5410833198296043
 40
0.6231832005497139
 40
0.7052830812697534
 40
0.7869462798563978
 40
0.8671259020004544
 40
0.9472985244662321
 40
1.0
 40
1.0
 40
1.0
 40
1.0
 10
148.2855003943209
 20
-27.87587058456585
 30
0.0
 10
149.9412250989838
 20
-28.90158509230148
 30
0.0
 10
153.3040178863281
 20
-30.9848211150375
 30
0.0
 10
157.5152921385875
 20
-34.58633979356514
 30
0.0
 10
160.7598152611045
 20
-38.23089112313684
 30
0.0
 10
163.0721805770583
 20
-41.8012353309878
 30
0.0
 10
164.6152514906459
 20
-45.19465162093854
 30
0.0
 10
165.5606846222556
 20
-48.6888228324471
 30
0.0
 10
165.8803547870098
 20
-52.24877274849701
 30
0.0
 10
165.5593318111237
 20
-55.80804411450781
 30
0.0
 10
164.620561352445
 20
-59.30432820457711
 30
0.0
 10
163.05251636767
 20
-62.69050006274962
 30
0.0
 10
161.260852133083
 20
-65.60764435262007
 30
0.0
 10
159.6823535267268
 20
-67.303132344262
 30
0.0
 10
159.0562781144726
 20
-67.9756089236298
 30
0.0
  0
LWPOLYLINE
  5
19E
330
162
100
AcDbEntity
  8
0
  6
Continuous
 62
    60
370
    25
100
AcDbPolyline
 90
       17
 70
   128
 43
0.0
 10
-247.4873734153
 20
75.941613007
 10
-253.2854346019
 20
79.4319882085
 10
-258.8252229049
 20
83.0594658304
 10
-264.0970196531
 20
86.8176820443
 10
-269.0915763237
 20
90.700043662
 10
-273.8001307671
 20
94.699739702
 10
-278.2144225788
 20
98.8097533382
 10
-282.326707591
 20
103.0228742101
 10
-286.1297714584
 20
107.3317110722
 10
-289.6169423148
 20
111.7287047604
 10
-292.7821024774
 20
116.2061414537
 10
-295.6196991799
 20
120.7561662066
 10
-298.1247543134
 20
125.3707967297
 10
-300.2928731599
 20
130.0419373929
 10
-302.1202521023
 20
134.7613934283
 10
-303.603685297
 20
139.5208853063
 10
-304.492715514
 20
143.128940701
  0
LWPOLYLINE
  5
1A0
330
162
100
AcDbEntity
  8
0
  6
Continuous
 62
    60
370
    25
100
AcDbPolyline
 90
       17
 70
   128
 43
0.0
 10
-247.4873734153
 20
-18.7771211718
 10
-253.2854346019
 20
-15.2867459703
 10
-258.8252229049
 20
-11.6592683484
 10
-264.0970196531
 20
-7.9010521344
 10
-269.0915763237
 20
-4.0186905167
 10
-273.8001307671
 20
-0.0189944768
 10
-278.2144225788
 20
4.0910191594
 10
-282.326707591
 20
8.3041400314
 10
-286.1297714584
 20
12.6129768934
 10
-289.6169423148
 20
17.0099705816
 10
-292.7821024774
 20
21.4874072749
 10
-295.6196991799
 20
26.0374320279
 10
-298.1247543134
 20
30.652062551
 10
-300.2928731599
 20
35.3232032142
 10
-302.1202521023
 20
40.0426592496
 10
-303.603685297
 20
44.8021511276
 10
-304.492715514
 20
48.4102065223
  0
LWPOLYLINE
  5
1A1
330
162
100
AcDbEntity
  8
0
  6
Continuous
 62
    60
370
    25
100
AcDbPolyline
 90
       55
 70
   128
 43
0.0
 10
-293.7847177984
 20
157.9255017801
 10
-293.6060785402
 20
162.5939096288
 10
-293.0704187404
 20
167.3118449811
 10
-292.1787854335
 20
172.0118014889
 10
-290.9328758943
 20
176.6848325181
 10
-289.3350617823
 20
181.3220426884
 10
-287.3883846277
 20
185.9146048067
 10
-285.0965500409
 20
190.45377667
 10
-282.4639206594
 20
194.9309177067
 10
-279.4955078428
 20
199.3375054243
 10
-276.1969621336
 20
203.6651516327
 10
-272.5745625011
 20
207.9056184113
 10
-268.6352043888
 20
212.0508337906
 10
-264.3863865889
 20
216.0929071176
 10
-259.8361969674
 20
220.0241440759
 10
-254.993297069
 20
223.8370613325
 10
-249.8669056289
 20
227.5244007827
 10
-244.4667810244
 20
231.0791433664
 10
-238.8032026998
 20
234.4945224289
 10
-232.8869515983
 20
237.7640366021
 10
-226.7292896401
 20
240.88146218
 10
-220.3419382847
 20
243.8408649658
 10
-213.7370562184
 20
246.636611568
 10
-206.9272162097
 20
249.2633801241
 10
-199.9253811761
 20
251.7161704309
 10
-192.7448795085
 20
253.9903134626
 10
-185.3993796999
 20
256.0814802587
 10
-177.9028643268
 20
257.9856901644
 10
-170.2696034322
 20
259.6993184078
 10
-162.514127362
 20
261.2191030002
 10
-154.6511991058
 20
262.5421509453
 10
-146.6957861944
 20
263.6659437461
 10
-138.6630322085
 20
264.5883421991
 10
-130.5682279517
 20
265.3075904665
 10
-122.4267823441
 20
265.8223194182
 10
-114.2541930902
 20
266.1315492385
 10
-106.066017178
 20
266.2346912909
 10
-97.8778412658
 20
266.1315492385
 10
-89.7052520118
 20
265.8223194182
 10
-81.5638064042
 20
265.3075904665
 10
-73.4690021475
 20
264.5883421991
 10
-65.4362481615
 20
263.6659437461
 10
-57.4808352501
 20
262.5421509453
 10
-49.6179069939
 20
261.2191030002
 10
-41.8624309238
 20
259.6993184078
 10
-34.2291700292
 20
257.9856901644
 10
-26.732654656
 20
256.0814802587
 10
-19.3871548475
 20
253.9903134626
 10
-12.2066531799
 20
251.7161704309
 10
-5.2048181462
 20
249.2633801241
 10
1.6050218625
 20
246.636611568
 10
8.2099039287
 20
243.8408649658
 10
14.5972552841
 20
240.88146218
 10
20.7549172423
 20
237.7640366021
 10
26.6711683439
 20
234.4945224289
  0
LINE
  5
1A2
330
162
100
AcDbEntity
  8
0
  6
Continuous
 62
     7
370
    25
100
AcDbLine
 10
306.066017178
 20
-59.5975267629
 30
0.0
 11
306.066017178
 21
35.1212074158
 31
0.0
  0
LINE
  5
1A3
330
162
100
AcDbEntity
  8
0
  6
Continuous
 62
     7
370
    25
100
AcDbLine
 10
-27.0638296467
 20
-40.5781603406
 30
0.0
 11
-239.1958640027
 21
81.8830564328
 31
0.0
  0
LINE
  5
1A4
330
162
100
AcDbEntity
  8
0
  6
Continuous
 62
     7
370
    25
100
AcDbLine
 10
-247.0730785856
 20
-19.6928107847
 30
0.0
 11
-34.9410442296
 21
-142.1540275581
 31
0.0
  0
LINE
  5
1A5
330
162
100
AcDbEntity
  8
0
  6
Continuous
 62
     7
370
    25
100
AcDbLine
 10
-306.066017178
 20
157.5824241892
 30
0.0
 11
-306.066017178
 21
62.8636900105
 31
0.0
  0
LINE
  5
1A6
330
162
100
AcDbEntity
  8
0
  6
Continuous
 62
     7
370
    25
100
AcDbLine
 10
247.0730785856
 20
117.677708211
 30
0.0
 11
34.9410442296
 21
240.1389249844
 31
0.0
  0
LINE
  5
1A7
330
162
100
AcDbEntity
  8
0
  6
Continuous
 62
     7
370
    25
100
AcDbLine
 10
-35.3553390593
 20
-46.5196037665
 30
0.0
 11
-35.3553390593
 21
-141.2383379452
 31
0.0
  0
LINE
  5
1A8
330
162
100
AcDbEntity
  8
0
  6
Continuous
 62
     7
370
    25
100
AcDbLine
 10
-28.0637483793
 20
-40.6771764416
 30
0.0
 11
-240.1957827353
 21
81.7840403318
 31
0.0
  0
LINE
  5
1A9
330
162
100
AcDbEntity
  8
0
  6
Continuous
 62
     7
370
    25
100
AcDbLine
 10
28.0637483793
 20
236.6469712942
 30
0.0
 11
240.1957827353
 21
114.1857545207
 31
0.0
  0
LINE
  5
1AA
330
162
100
AcDbEntity
  8
0
  6
Continuous
 62
     7
370
    25
100
AcDbLine
 10
33.941125497
 20
240.0399088834
 30
0.0
 11
246.0731598529
 21
117.57869211
 31
0.0
  0
LINE
  5
1AB
330
162
100
AcDbEntity
  8
0
  6
Continuous
 62
     7
370
    25
100
AcDbLine
 10
-33.941125497
 20
-44.0701140309
 30
0.0
 11
-246.0731598529
 21
78.3911027425
 31
0.0
  0
LINE
  5
1AC
330
162
100
AcDbEntity
  8
0
  6
Continuous
 62
     7
370
    25
100
AcDbLine
 10
-35.3553390593
 20
-46.5196037665
 30
0.0
 11
-247.4873734153
 21
75.941613007
 31
0.0
  0
LINE
  5
1AD
330
162
100
AcDbEntity
  8
0
  6
Continuous
 62
     7
370
    25
100
AcDbLine
 10
-35.3553390593
 20
-141.2383379452
 30
0.0
 11
-247.4873734153
 21
-18.7771211718
 31
0.0
  0
LINE
  5
1AE
330
162
100
AcDbEntity
  8
0
  6
Continuous
 62
     7
370
    25
100
AcDbLine
 10
-247.4873734153
 20
-18.7771211718
 30
0.0
 11
-247.4873734153
 21
75.941613007
 31
0.0
  0
LINE
  5
1AF
330
162
100
AcDbEntity
  8
0
  6
Continuous
 62
     7
370
    25
100
AcDbLine
 10
-63.8465339616
 20
94.5853461888
 30
0.0
 11
148.2855003943
 21
-27.8758705846
 31
0.0
  0
LINE
  5
1B0
330
162
100
AcDbEntity
  8
0
  6
Continuous
 62
     7
370
    25
100
AcDbLine
 10
26.6711683439
 20
234.4945224289
 30
0.0
 11
238.8032026998
 21
112.0333056555
 31
0.0
  0
LINE
  5
1B1
330
162
100
AcDbEntity
  8
0
  6
Continuous
 62
     7
370
    25
100
AcDbLine
 10
-16.2634559673
 20
-8.6286534844
 30
0.0
 11
-15.1412333924
 21
-9.2345937469
 31
0.0
  0
LINE
  5
1B2
330
162
100
AcDbEntity
  8
0
  6
Continuous
 62
    60
370
    25
100
AcDbLine
 10
47.0071938376
 20
-66.9003041941
 30
0.0
 11
-148.2855003943
 21
45.8397684461
 31
0.0
  0
ARC
  5
1B3
330
162
100
AcDbEntity
  8
0
  6
Continuous
 62
     7
370
    25
100
AcDbCircle
 10
238.7268971165
 20
35.121006255
 30
0.0
 40
67.33536863659677
100
AcDbArc
 50
347.5421302649
 51
12.3951231305
  0
ARC
  5
1B4
330
162
100
AcDbEntity
  8
0
  6
Continuous
 62
     7
370
    25
100
AcDbCircle
 10
-32.2849068566
 20
-46.659325471
 30
0.0
 40
3.073609615146671
100
AcDbArc
 50
122.60547834
 51
177.3945215143
  0
ARC
  5
1B5
330
162
100
AcDbEntity
  8
0
  6
Continuous
 62
     7
370
    25
100
AcDbCircle
 10
238.5348455627
 20
-59.5593266414
 30
0.0
 40
67.53118241958784
100
AcDbArc
 50
347.5454667863
 51
359.9675897004
  0
ARC
  5
1B6
330
162
100
AcDbEntity
  8
0
  6
Continuous
 62
     7
370
    25
100
AcDbCircle
 10
227.4281718276
 20
35.7917173634
 30
0.0
 40
66.35739049570381
100
AcDbArc
 50
334.9526263157
 51
359.7118813488
  0
ARC
  5
1B7
330
162
100
AcDbEntity
  8
0
  6
Continuous
 62
     7
370
    25
100
AcDbCircle
 10
241.8952137608
 20
111.5595590996
 30
0.0
 40
3.128093381029362
100
AcDbArc
 50
122.9072129366
 51
171.2890935188
  0
ARC
  5
1B8
330
162
100
AcDbEntity
  8
0
  6
Continuous
 62
     7
370
    25
100
AcDbCircle
 10
-244.4169412126
 20
75.8018913024
 30
0.0
 40
3.073609615142254
100
AcDbArc
 50
122.60547834
 51
177.3945215144
  0
ARC
  5
1B9
330
162
100
AcDbEntity
  8
0
  6
Continuous
 62
     7
370
    25
100
AcDbCircle
 10
-238.7268971165
 20
157.5826253501
 30
0.0
 40
67.33536863659356
100
AcDbArc
 50
167.5421302649
 51
192.3951231306
  0
ARC
  5
1BA
330
162
100
AcDbEntity
  8
0
  6
Continuous
 62
     7
370
    25
100
AcDbCircle
 10
-238.3667603693
 20
62.9205705442
 30
0.0
 40
67.69928070401454
100
AcDbArc
 50
180.0481395794
 51
192.3765496764
  0
ARC
  5
1BB
330
162
100
AcDbEntity
  8
0
  6
Continuous
 62
     7
370
    25
100
AcDbCircle
 10
29.7631794049
 20
234.020775873
 30
0.0
 40
3.128093381027911
100
AcDbArc
 50
122.9072129366
 51
171.2890935188
  0
ARC
  5
1BC
330
162
100
AcDbEntity
  8
0
  6
Continuous
 62
     7
370
    25
100
AcDbCircle
 10
-228.190367397
 20
158.0993018588
 30
0.0
 40
65.5945806529642
100
AcDbArc
 50
180.1518116672
 51
204.5259612753
  0
ARC
  5
1BD
330
162
100
AcDbEntity
  8
0
  6
Continuous
 62
    60
370
    25
100
AcDbCircle
 10
246.6593652872
 20
116.7599121847
 30
0.0
 40
1.006994229060348
100
AcDbArc
 50
65.8856225526
 51
125.6007671363
  0
ARC
  5
1BE
330
162
100
AcDbEntity
  8
0
  6
Continuous
 62
    60
370
    25
100
AcDbCircle
 10
-27.4828918912
 20
-41.4581140104
 30
0.0
 40
0.9732716713261046
100
AcDbArc
 50
63.5645353976
 51
126.6416402856
  0
ARC
  5
1BF
330
162
100
AcDbEntity
  8
0
  6
Continuous
 62
    60
370
    25
100
AcDbCircle
 10
-34.4047129518
 20
-141.3596423862
 30
0.0
 40
0.9583343694596758
100
AcDbArc
 50
172.7280838751
 51
236.1040545312
  0
ARC
  5
1C0
330
162
100
AcDbEntity
  8
0
  6
Continuous
 62
    60
370
    25
100
AcDbCircle
 10
-239.6130088227
 20
80.9972418083
 30
0.0
 40
0.9791207023905389
100
AcDbArc
 50
64.7834749462
 51
126.5269834829
  0
ARC
  5
1C1
330
162
100
AcDbEntity
  8
0
  6
Continuous
 62
    60
370
    25
100
AcDbCircle
 10
-201.681820361
 20
137.3780519486
 30
0.0
 40
105.9736964183705
100
AcDbArc
 50
290.9153468373
 51
300.2559645127
  0
ARC
  5
1C2
330
162
100
AcDbEntity
  8
0
  6
Continuous
 62
    60
370
    25
100
AcDbCircle
 10
-246.5073696106
 20
-18.8852946465
 30
0.0
 40
0.9859558599553802
100
AcDbArc
 50
173.7011524799
 51
234.9866671268
  0
ARC
  5
1C3
330
162
100
AcDbEntity
  8
0
  6
Continuous
 62
    60
370
    25
100
AcDbCircle
 10
34.5273309312
 20
239.2211289581
 30
0.0
 40
1.006994229060054
100
AcDbArc
 50
65.8856225525
 51
125.6007671363
  0
VIEWPORT
  5
27C
330
162
100
AcDbEntity
  8
0
100
AcDbViewport
 10
0.0
 20
0.0
 30
0.0
 40
205.6
 41
156.0
 68
     1
 69
     1
 12
0.0
 22
0.0
 13
0.0
 23
0.0
 14
10.0
 24
10.0
 15
10.0
 25
10.0
 16
0.0
 26
0.0
 36
1.0
 17
0.0
 27
0.0
 37
0.0
 42
50.0
 43
0.0
 44
0.0
 45
541.7509727626
 50
0.0
 51
0.0
 72
   100
 90
   557152
  1

281
     0
 71
     1
 74
     0
110
0.0
120
0.0
130
0.0
111
1.0
121
0.0
131
0.0
112
0.0
122
1.0
132
0.0
 79
     0
146
0.0
  0
ENDBLK
  5
165
330
162
100
AcDbEntity
  8
0
100
AcDbBlockEnd
  0
BLOCK
  5
1C6
330
1C4
100
AcDbEntity
  8
0
100
AcDbBlockBegin
  2
*Paper_Space6
 70
     0
 10
0.0
 20
0.0
 30
0.0
  3
*Paper_Space6
  1

  0
SPLINE
  5
1C8
330
1C4
100
AcDbEntity
  8
0
  6
Continuous
 62
     7
370
    25
100
AcDbSpline
210
0.0
220
0.0
230
1.0
 70
     8
 71
     3
 72
    34
 73
    30
 74
     0
 42
0.000000001
 43
0.00000001
 40
0.0
 40
0.0
 40
0.0
 40
0.0
 40
0.0116664642647316
 40
0.0529832199570625
 40
0.0947490906783626
 40
0.1369557903279085
 40
0.1751087705912141
 40
0.2133050991033607
 40
0.2515371995853528
 40
0.2897992808072425
 40
0.3280852303342007
 40
0.3663891211169135
 40
0.4047055321306715
 40
0.4430297123894084
 40
0.4813576271399584
 40
0.5196859249415656
 40
0.558011857846542
 40
0.5963324238266927
 40
0.6346458872665506
 40
0.6729508634560072
 40
0.7112460944909677
 40
0.7495303620468936
 40
0.7878023922092332
 40
0.8260607561043685
 40
0.8643037584190666
 40
0.9025293026570039
 40
0.9407347167906295
 40
0.9789165142212805
 40
1.0
 40
1.0
 40
1.0
 40
1.0
 10
331.5112543176692
 20
76.11472403970119
 30
0.0
 10
331.4395527223337
 20
76.5153083498463
 30
0.0
 10
331.1139200961392
 20
78.33456105007753
 30
0.0
 10
330.1982673426846
 20
81.56467835163939
 30
0.0
 10
328.7474159342879
 20
85.80850233645297
 30
0.0
 10
326.98259775977
 20
89.90285870968668
 30
0.0
 10
324.9772589807891
 20
93.83324296582076
 30
0.0
 10
322.7669778868999
 20
97.58549952135391
 30
0.0
 10
320.287828178977
 20
101.2899143204125
 30
0.0
 10
317.5431623594106
 20
104.9408487632929
 30
0.0
 10
314.5374072149409
 20
108.5329474503013
 30
0.0
 10
311.2752029985329
 20
112.0610250670409
 30
0.0
 10
307.7616026940137
 20
115.5200855564044
 30
0.0
 10
304.00197952416
 20
118.905316701277
 30
0.0
 10
300.0020219148643
 20
122.2120827130483
 30
0.0
 10
295.7677141704781
 20
125.4359133049987
 30
0.0
 10
291.3053580513439
 20
128.5724724710986
 30
0.0
 10
286.6215403936292
 20
131.6175759508024
 30
0.0
 10
281.7231265068093
 20
134.5671857851762
 30
0.0
 10
276.6172261966585
 20
137.4174231576247
 30
0.0
 10
271.3112265326502
 20
140.164536883888
 30
0.0
 10
265.8128177966458
 20
142.8049186421294
 30
0.0
 10
260.1299321307619
 20
145.3350408827522
 30
0.0
 10
254.2709950649588
 20
147.7517020762851
 30
0.0
 10
248.2440213905161
 20
150.0511298650792
 30
0.0
 10
242.0600380865407
 20
152.2323473591373
 30
0.0
 10
235.7203973891126
 20
154.2846422149841
 30
0.0
 10
230.2263767967065
 20
155.9437565140283
 30
0.0
 10
226.7969110612028
 20
156.8672794003837
 30
0.0
 10
225.5768866531921
 20
157.1958205055026
 30
0.0
  0
SPLINE
  5
1CA
330
1C4
100
AcDbEntity
  8
0
  6
Continuous
 62
     7
370
    25
100
AcDbSpline
210
0.0
220
0.0
230
1.0
 70
     8
 71
     3
 72
    22
 73
    18
 74
     0
 42
0.000000001
 43
0.00000001
 40
0.0
 40
0.0
 40
0.0
 40
0.0
 40
0.0840150169763059
 40
0.1188264967451939
 40
0.1765080094682938
 40
0.2364925953111162
 40
0.3008833874241564
 40
0.3680907912546797
 40
0.437468461066735
 40
0.5085005872154073
 40
0.5808202636713752
 40
0.6541555992156524
 40
0.7283013718008476
 40
0.8030996536162375
 40
0.8784268081428919
 40
0.9541845616154815
 40
1.0
 40
1.0
 40
1.0
 40
1.0
 10
132.6627182516139
 20
-30.60575386643597
 30
0.0
 10
130.0976768734545
 20
-30.59106186159944
 30
0.0
 10
126.4698149513519
 20
-30.57028224948104
 30
0.0
 10
121.0877996715538
 20
-30.4302530451375
 30
0.0
 10
116.4443581234485
 20
-30.25956863524829
 30
0.0
 10
110.9139041841834
 20
-29.97271172840417
 30
0.0
 10
105.1144056383456
 20
-29.5809639327471
 30
0.0
 10
99.05931735207582
 20
-29.07001828841951
 30
0.0
 10
92.84178266437759
 20
-28.43574027313495
 30
0.0
 10
86.51818457098199
 20
-27.67444020942515
 30
0.0
 10
80.13369154721838
 20
-26.78405679364954
 30
0.0
 10
73.72394906126014
 20
-25.7636979077299
 30
0.0
 10
67.31882847560337
 20
-24.61274364714353
 30
0.0
 10
60.94141979911979
 20
-23.33338290130364
 30
0.0
 10
54.61981841857688
 20
-21.92027370041
 30
0.0
 10
49.18433032555222
 20
-20.60186586357266
 30
0.0
 10
45.90926934490644
 20
-19.70699159274112
 30
0.0
 10
44.67504696189389
 20
-19.36975394691732
 30
0.0
  0
SPLINE
  5
1CB
330
1C4
100
AcDbEntity
  8
0
  6
Continuous
 62
     7
370
    25
100
AcDbSpline
210
0.0
220
0.0
230
1.0
 70
     8
 71
     3
 72
    44
 73
    40
 74
     0
 42
0.000000001
 43
0.00000001
 40
0.0
 40
0.0
 40
0.0
 40
0.0
 40
0.0262131366614063
 40
0.0548399461791476
 40
0.083406547669741
 40
0.1119222109743163
 40
0.1403963573728699
 40
0.1688378553009737
 40
0.1972546084052654
 40
0.2256533662657567
 40
0.2540396867869727
 40
0.2824179914627901
 40
0.3107916697627795
 40
0.339162620257954
 40
0.3675325814708736
 40
0.395902745434801
 40
0.4242736793142881
 40
0.4526454128945729
 40
0.4810174906582353
 40
0.5093889970475949
 40
0.5377585514117499
 40
0.5661242667016562
 40
0.5944836615534747
 40
0.6228335078205861
 40
0.6511695824422423
 40
0.6794862688178214
 40
0.7077759081476873
 40
0.7360277123577186
 40
0.7642258625232076
 40
0.7923459903888433
 40
0.8203481834528191
 40
0.848161728756846
 40
0.8756474751376642
 40
0.9024874219642193
 40
0.9277588025746031
 40
0.9488828616761473
 40
0.9660811050607347
 40
0.9865953430494216
 40
1.0
 40
1.0
 40
1.0
 40
1.0
 10
316.0478573504815
 20
44.83324552584032
 30
0.0
 10
315.561496909318
 20
43.74051242849268
 30
0.0
 10
314.5439925655384
 20
41.45442873615281
 30
0.0
 10
312.6593674819644
 20
38.01174792610627
 30
0.0
 10
310.4773567032272
 20
34.50602103535388
 30
0.0
 10
308.0267327714938
 20
31.04669235934622
 30
0.0
 10
305.3191393157201
 20
27.63735927395329
 30
0.0
 10
302.3560887283132
 20
24.28262929873237
 30
0.0
 10
299.1421557480885
 20
20.98696021967783
 30
0.0
 10
295.6815167715614
 20
17.75495988299243
 30
0.0
 10
291.9789254996861
 20
14.59127727831117
 30
0.0
 10
288.0394855153042
 20
11.50059339801911
 30
0.0
 10
283.8687588619786
 20
8.487602852115327
 30
0.0
 10
279.4727285006828
 20
5.556959208820919
 30
0.0
 10
274.8577930194643
 20
2.713241292087921
 30
0.0
 10
270.0307239051887
 20
-0.0390876907275864
 30
0.0
 10
264.9986892091241
 20
-2.695678146757037
 30
0.0
 10
259.7692541443979
 20
-5.252307540141825
 30
0.0
 10
254.3503731936015
 20
-7.704896833380541
 30
0.0
 10
248.7503850608839
 20
-10.04952393038707
 30
0.0
 10
242.9780117378264
 20
-12.2824348880527
 30
0.0
 10
237.0423640830102
 20
-14.40005325097885
 30
0.0
 10
230.9529574438848
 20
-16.39898780094396
 30
0.0
 10
224.7197428710839
 20
-18.27603892710498
 30
0.0
 10
218.3531631487982
 20
-20.02820370882914
 30
0.0
 10
211.8642497018026
 20
-21.65267963871079
 30
0.0
 10
205.2647897123012
 20
-23.14686660633453
 30
0.0
 10
198.5676199823267
 20
-24.50836623099754
 30
0.0
 10
191.7871636640237
 20
-25.7349761030072
 30
0.0
 10
184.940467762148
 20
-26.82467391431035
 30
0.0
 10
178.0493732599064
 20
-27.77557424389363
 30
0.0
 10
171.145579860702
 20
-28.58582053898119
 30
0.0
 10
164.2844828536936
 20
-29.25321488366198
 30
0.0
 10
157.5938405915639
 20
-29.77386177630701
 30
0.0
 10
151.4089128993092
 20
-30.14085053555551
 30
0.0
 10
146.0216752625501
 20
-30.37295680608401
 30
0.0
 10
141.0285192137503
 20
-30.52014431077094
 30
0.0
 10
136.6852228782857
 20
-30.59459576071311
 30
0.0
 10
133.802114861745
 20
-30.60259327147937
 30
0.0
 10
132.6627182516139
 20
-30.60575386643597
 30
0.0
  0
SPLINE
  5
1CC
330
1C4
100
AcDbEntity
  8
0
  6
Continuous
 62
     7
370
    25
100
AcDbSpline
210
0.0
220
0.0
230
1.0
 70
     8
 71
     3
 72
    22
 73
    18
 74
     0
 42
0.000000001
 43
0.00000001
 40
0.0
 40
0.0
 40
0.0
 40
0.0
 40
0.0345598094473583
 40
0.1117349475639857
 40
0.1888222380110683
 40
0.2657961309287585
 40
0.342618742176974
 40
0.4192314489036943
 40
0.4955384715947146
 40
0.5713718288245399
 40
0.6464073162657852
 40
0.7199279716013959
 40
0.7899732536060909
 40
0.8513789107681403
 40
0.8974275430852164
 40
0.9496548149761859
 40
1.0
 40
1.0
 40
1.0
 40
1.0
 10
39.74854920375044
 20
-126.4455126499346
 30
0.0
 10
40.73074222221994
 20
-126.7170018938215
 30
0.0
 10
43.90625988771988
 20
-127.5947508431058
 30
0.0
 10
49.40781297654883
 20
-128.9415342490734
 30
0.0
 10
56.23299054779875
 20
-130.4873490269949
 30
0.0
 10
63.16107072438074
 20
-131.8908656283469
 30
0.0
 10
70.16886478956482
 20
-133.1594389857646
 30
0.0
 10
77.24273726745683
 20
-134.2887918392494
 30
0.0
 10
84.3615514390003
 20
-135.2779114935525
 30
0.0
 10
91.49637264859717
 20
-136.124975258028
 30
0.0
 10
98.59796700780868
 20
-136.8281171559499
 30
0.0
 10
105.5594423161914
 20
-137.3841844144456
 30
0.0
 10
112.1178126014529
 20
-137.7879426960227
 30
0.0
 10
117.8155727065451
 20
-138.0444498905878
 30
0.0
 10
122.9508439654426
 20
-138.2050610173582
 30
0.0
 10
127.736140140457
 20
-138.3001423523868
 30
0.0
 10
131.0407374037387
 20
-138.3121800322437
 30
0.0
 10
132.6627182517486
 20
-138.318088433367
 30
0.0
  0
SPLINE
  5
1CD
330
1C4
100
AcDbEntity
  8
0
  6
Continuous
 62
     7
370
    25
100
AcDbSpline
210
0.0
220
0.0
230
1.0
 70
     8
 71
     3
 72
    49
 73
    45
 74
     0
 42
0.000000001
 43
0.00000001
 40
0.0
 40
0.0
 40
0.0
 40
0.0
 40
0.0271707048504664
 40
0.038425930680814
 40
0.0570766695465797
 40
0.0764730074408916
 40
0.0972956668695179
 40
0.119031423443021
 40
0.1414719384579338
 40
0.1644510630772123
 40
0.187850769826937
 40
0.2115837392533856
 40
0.2355841986852915
 40
0.2598016595973907
 40
0.2841967129275323
 40
0.3087381395895135
 40
0.3334008885852754
 40
0.3581646376061107
 40
0.3830127524067435
 40
0.4079315244537836
 40
0.4329096064574454
 40
0.4579375912765394
 40
0.4830076966789469
 40
0.5081135297882915
 40
0.5332499127530329
 40
0.5584127564934858
 40
0.5835989731165496
 40
0.6088064202620118
 40
0.6340338726113687
 40
0.6592810172995061
 40
0.6845482026595576
 40
0.7098366292361981
 40
0.7351487431031888
 40
0.7604880703894945
 40
0.7858593412905422
 40
0.811268639816423
 40
0.8367235946496716
 40
0.86223361433206
 40
0.8878101641414993
 40
0.9134670695319089
 40
0.9392208107366482
 40
0.9650907455438713
 40
0.9910991665901542
 40
1.0
 40
1.0
 40
1.0
 40
1.0
 10
132.6627182517486
 20
-138.318088433367
 30
0.0
 10
135.3085592201305
 20
-138.3032713583208
 30
0.0
 10
139.0504165699135
 20
-138.2823164400827
 30
0.0
 10
144.6017502382064
 20
-138.1411085304176
 30
0.0
 10
149.3912678207304
 20
-137.9690034727319
 30
0.0
 10
155.0968563429226
 20
-137.6797297848647
 30
0.0
 10
161.0817132692574
 20
-137.2846127298365
 30
0.0
 10
167.3327321053727
 20
-136.7691430674901
 30
0.0
 10
173.7545974159194
 20
-136.1290416128841
 30
0.0
 10
180.2899070914107
 20
-135.3604371193933
 30
0.0
 10
186.8928617720781
 20
-134.461108534911
 30
0.0
 10
193.5273159908698
 20
-133.4298327073205
 30
0.0
 10
200.1636675906894
 20
-132.2661988936361
 30
0.0
 10
206.7770062599353
 20
-130.9704376672211
 30
0.0
 10
213.3458614952816
 20
-129.5433076868486
 30
0.0
 10
219.8513540472875
 20
-127.9860107763068
 30
0.0
 10
226.2766097601988
 20
-126.3001280078337
 30
0.0
 10
232.6063479482015
 20
-124.4875693877474
 30
0.0
 10
238.8265878604369
 20
-122.5505329542019
 30
0.0
 10
244.9244363337562
 20
-120.4914702671573
 30
0.0
 10
250.8879320579958
 20
-118.313056254903
 30
0.0
 10
256.7059297588509
 20
-116.0181619660092
 30
0.0
 10
262.3680127243854
 20
-113.6098291878263
 30
0.0
 10
267.8644254751579
 20
-111.0912461756517
 30
0.0
 10
273.1860206287697
 20
-108.4657239447369
 30
0.0
 10
278.3242155259341
 20
-105.7366727388987
 30
0.0
 10
283.2709552146449
 20
-102.9075784263055
 30
0.0
 10
288.0186790921408
 20
-99.98197869930908
 30
0.0
 10
292.5602889922519
 20
-96.96343908343769
 30
0.0
 10
296.8891014964505
 20
-93.85553990962548
 30
0.0
 10
300.9988116340983
 20
-90.6618590082266
 30
0.0
 10
304.8834728314578
 20
-87.38594116212559
 30
0.0
 10
308.5374684763278
 20
-84.03126573076666
 30
0.0
 10
311.9554662738592
 20
-80.6012210010752
 30
0.0
 10
315.1323573683869
 20
-77.09909627781586
 30
0.0
 10
318.0631837357838
 20
-73.52806465412925
 30
0.0
 10
320.7431286104182
 20
-69.89117395919176
 30
0.0
 10
323.1672366754323
 20
-66.19132413970438
 30
0.0
 10
325.3311115343387
 20
-62.43131496061021
 30
0.0
 10
327.2279144269338
 20
-58.61365646610906
 30
0.0
 10
328.8591954848907
 20
-54.74130732968547
 30
0.0
 10
330.193765247297
 20
-50.81498884353017
 30
0.0
 10
331.072186335818
 20
-47.72228371490137
 30
0.0
 10
331.4034842257252
 20
-45.9335486976612
 30
0.0
 10
331.4879554461233
 20
-45.47747386447274
 30
0.0
  0
SPLINE
  5
1D0
330
1C4
100
AcDbEntity
  8
0
  6
Continuous
 62
     7
370
    25
100
AcDbSpline
210
0.0
220
0.0
230
1.0
 70
     8
 71
     3
 72
    22
 73
    18
 74
     0
 42
0.000000001
 43
0.00000001
 40
0.0
 40
0.0
 40
0.0
 40
0.0
 40
0.034559802148152
 40
0.1117349408482493
 40
0.1888222318781428
 40
0.2657961253778059
 40
0.3426187372068296
 40
0.4192314445127818
 40
0.4955384677807226
 40
0.5713718255838872
 40
0.6464073135924397
 40
0.7199279694839045
 40
0.7899732520181781
 40
0.8513789096442661
 40
0.8974275423091312
 40
0.9496548145936848
 40
1.0
 40
1.0
 40
1.0
 40
1.0
 10
-39.74854985003471
 20
229.3055889106791
 30
0.0
 10
-40.73074265400205
 20
229.577078094802
 30
0.0
 10
-43.90626010582112
 20
230.4548269834925
 30
0.0
 10
-49.40781297730921
 20
231.8016103325619
 30
0.0
 10
-56.23299054759342
 20
233.3474251114583
 30
0.0
 10
-63.16107072443325
 20
234.7509417125495
 30
0.0
 10
-70.16886478954834
 20
236.0195150700368
 30
0.0
 10
-77.2427372674585
 20
237.1488679235029
 30
0.0
 10
-84.36155143899707
 20
238.137987577811
 30
0.0
 10
-91.49637264859527
 20
238.9850513422852
 30
0.0
 10
-98.59796700780636
 20
239.6881932402074
 30
0.0
 10
-105.5594423161892
 20
240.2442604987031
 30
0.0
 10
-112.1178126014437
 20
240.6480187802798
 30
0.0
 10
-117.8155727065171
 20
240.9045259748441
 30
0.0
 10
-122.9508439653547
 20
241.0651371016132
 30
0.0
 10
-127.736140140376
 20
241.1602184366434
 30
0.0
 10
-131.0407374036765
 20
241.1722561165007
 30
0.0
 10
-132.6627182517466
 20
241.1781645176245
 30
0.0
  0
SPLINE
  5
1D1
330
1C4
100
AcDbEntity
  8
0
  6
Continuous
 62
     7
370
    25
100
AcDbSpline
210
0.0
220
0.0
230
1.0
 70
     8
 71
     3
 72
    49
 73
    45
 74
     0
 42
0.000000001
 43
0.00000001
 40
0.0
 40
0.0
 40
0.0
 40
0.0
 40
0.0271707048504995
 40
0.0384259306808349
 40
0.0570766695466088
 40
0.0764730074409135
 40
0.097295666869543
 40
0.1190314234430405
 40
0.1414719384579606
 40
0.1644510630772502
 40
0.1878507698269586
 40
0.2115837392534115
 40
0.2355841986853156
 40
0.259801659597414
 40
0.2841967129275573
 40
0.3087381395895397
 40
0.3334008885853024
 40
0.3581646376061377
 40
0.3830127524067683
 40
0.4079315244538153
 40
0.4329096064574727
 40
0.4579375912765623
 40
0.4830076966789612
 40
0.5081135297883148
 40
0.5332499127530596
 40
0.558412756493516
 40
0.5835989731165782
 40
0.6088064202620398
 40
0.6340338726113902
 40
0.6592810172995328
 40
0.6845482026595836
 40
0.7098366292362239
 40
0.7351487431032193
 40
0.7604880703895248
 40
0.785859341290567
 40
0.8112686398164479
 40
0.8367235946496862
 40
0.8622336143320897
 40
0.8878101641415187
 40
0.9134670695319286
 40
0.9392208107366683
 40
0.9650907455438967
 40
0.9910991665901848
 40
1.0
 40
1.0
 40
1.0
 40
1.0
 10
-132.6627182517466
 20
241.1781645176245
 30
0.0
 10
-135.3085592201318
 20
241.1633474425783
 30
0.0
 10
-139.0504165699169
 20
241.1423925243401
 30
0.0
 10
-144.6017502382129
 20
241.0011846146749
 30
0.0
 10
-149.3912678207359
 20
240.8290795569889
 30
0.0
 10
-155.0968563429286
 20
240.5398058691217
 30
0.0
 10
-161.0817132692628
 20
240.1446888140934
 30
0.0
 10
-167.3327321053787
 20
239.6292191517468
 30
0.0
 10
-173.7545974159269
 20
238.9891176971405
 30
0.0
 10
-180.2899070914184
 20
238.2205132036494
 30
0.0
 10
-186.892861772086
 20
237.321184619167
 30
0.0
 10
-193.5273159908765
 20
236.2899087915765
 30
0.0
 10
-200.1636675906963
 20
235.1262749778919
 30
0.0
 10
-206.7770062599423
 20
233.8305137514766
 30
0.0
 10
-213.3458614952887
 20
232.4033837711038
 30
0.0
 10
-219.8513540472952
 20
230.8460868605619
 30
0.0
 10
-226.2766097602065
 20
229.1602040920883
 30
0.0
 10
-232.6063479482092
 20
227.3476454720019
 30
0.0
 10
-238.8265878604451
 20
225.4106090384561
 30
0.0
 10
-244.9244363337642
 20
223.3515463514111
 30
0.0
 10
-250.8879320580039
 20
221.1731323391568
 30
0.0
 10
-256.7059297588572
 20
218.8782380502629
 30
0.0
 10
-262.3680127243916
 20
216.4699052720802
 30
0.0
 10
-267.8644254751643
 20
213.9513222599051
 30
0.0
 10
-273.186020628777
 20
211.3258000289894
 30
0.0
 10
-278.3242155259417
 20
208.5967488231509
 30
0.0
 10
-283.2709552146521
 20
205.7676545105572
 30
0.0
 10
-288.0186790921474
 20
202.8420547835609
 30
0.0
 10
-292.5602889922581
 20
199.8235151676894
 30
0.0
 10
-296.8891014964565
 20
196.715615993877
 30
0.0
 10
-300.9988116341041
 20
193.5219350924776
 30
0.0
 10
-304.8834728314635
 20
190.2460172463762
 30
0.0
 10
-308.5374684763333
 20
186.8913418150167
 30
0.0
 10
-311.9554662738644
 20
183.4612970853252
 30
0.0
 10
-315.1323573683912
 20
179.9591723620657
 30
0.0
 10
-318.0631837357873
 20
176.3881407383796
 30
0.0
 10
-320.7431286104211
 20
172.7512500434416
 30
0.0
 10
-323.1672366754349
 20
169.0514002239543
 30
0.0
 10
-325.3311115343406
 20
165.2913910448596
 30
0.0
 10
-327.2279144269354
 20
161.4737325503587
 30
0.0
 10
-328.8591954848916
 20
157.6013834139345
 30
0.0
 10
-330.1937652472973
 20
153.6750649277785
 30
0.0
 10
-331.0721863358178
 20
150.5823597991506
 30
0.0
 10
-331.4034842257245
 20
148.7936247819117
 30
0.0
 10
-331.4879554461223
 20
148.3375499487248
 30
0.0
  0
SPLINE
  5
1D3
330
1C4
100
AcDbEntity
  8
0
  6
Continuous
 62
     7
370
    25
100
AcDbSpline
210
0.0
220
0.0
230
1.0
 70
     8
 71
     3
 72
    31
 73
    27
 74
     0
 42
0.000000001
 43
0.00000001
 40
0.0
 40
0.0
 40
0.0
 40
0.0
 40
0.017101789665149
 40
0.0602298644673031
 40
0.103490072416389
 40
0.146857721285763
 40
0.1903123620371166
 40
0.2338370990486736
 40
0.2774180984883036
 40
0.3210442522631981
 40
0.3647069690035485
 40
0.4084000733855762
 40
0.4521198020815259
 40
0.4958648895109459
 40
0.5396367397314202
 40
0.5834396823082891
 40
0.6272804602068098
 40
0.6711698169571908
 40
0.7151228026635532
 40
0.7591590805254492
 40
0.8033034713028475
 40
0.8475864443472778
 40
0.8920444742996623
 40
0.9367201336126483
 40
0.981661746482492
 40
0.9999999999999999
 40
0.9999999999999999
 40
0.9999999999999999
 40
0.9999999999999999
 10
-220.6503895413283
 20
52.74001445825796
 30
0.0
 10
-221.4710324365585
 20
52.95855372025891
 30
0.0
 10
-224.3612100918536
 20
53.72821528134837
 30
0.0
 10
-229.197886498843
 20
55.1731990151194
 30
0.0
 10
-235.1557648813691
 20
57.07216120113834
 30
0.0
 10
-240.977039904123
 20
59.09594830307563
 30
0.0
 10
-246.6593739261175
 20
61.2320189092671
 30
0.0
 10
-252.1889731415307
 20
63.47951364359142
 30
0.0
 10
-257.556122201111
 20
65.83417026461048
 30
0.0
 10
-262.7509296019108
 20
68.29241278781498
 30
0.0
 10
-267.7644119815142
 20
70.85028792294725
 30
0.0
 10
-272.5881582755785
 20
73.50378770323165
 30
0.0
 10
-277.2143845334922
 20
76.24880311911427
 30
0.0
 10
-281.6358892575222
 20
79.08118107122272
 30
0.0
 10
-285.8460376083578
 20
81.99675894424611
 30
0.0
 10
-289.8387094374115
 20
84.99139233043104
 30
0.0
 10
-293.6082918122638
 20
88.06101067521334
 30
0.0
 10
-297.149639628497
 20
91.2016787226174
 30
0.0
 10
-300.4580947926233
 20
94.40967548124577
 30
0.0
 10
-303.5292375091668
 20
97.68157085180762
 30
0.0
 10
-306.3594417155778
 20
101.0142351265108
 30
0.0
 10
-308.9433482658982
 20
104.4051283153804
 30
0.0
 10
-311.2827921909902
 20
107.8515473793472
 30
0.0
 10
-313.3525721667921
 20
111.3537359309969
 30
0.0
 10
-314.8539260248625
 20
114.1948378335044
 30
0.0
 10
-315.5660983283338
 20
115.8760985462089
 30
0.0
 10
-315.7724830284731
 20
116.3633212117859
 30
0.0
  0
SPLINE
  5
1D4
330
1C4
100
AcDbEntity
  8
0
  6
Continuous
 62
     7
370
    25
100
AcDbSpline
210
0.0
220
0.0
230
1.0
 70
     8
 71
     3
 72
    34
 73
    30
 74
     0
 42
0.000000001
 43
0.00000001
 40
0.0
 40
0.0
 40
0.0
 40
0.0
 40
0.0116664642647599
 40
0.0529832199570889
 40
0.0947490906783779
 40
0.1369557903279383
 40
0.1751087705912415
 40
0.2133050991033874
 40
0.2515371995853631
 40
0.2897992808072468
 40
0.3280852303341916
 40
0.3663891211169011
 40
0.4047055321306563
 40
0.443029712389398
 40
0.4813576271399441
 40
0.5196859249415431
 40
0.5580118578465193
 40
0.5963324238266715
 40
0.6346458872665312
 40
0.6729508634559861
 40
0.7112460944909433
 40
0.7495303620468717
 40
0.7878023922092142
 40
0.8260607561043458
 40
0.864303758419056
 40
0.9025293026569914
 40
0.9407347167906164
 40
0.9789165142212698
 40
1.0
 40
1.0
 40
1.0
 40
1.0
 10
-331.5112543176668
 20
26.7453520445558
 30
0.0
 10
-331.4395527223311
 20
26.34476773440975
 30
0.0
 10
-331.1139200961364
 20
24.52551503417758
 30
0.0
 10
-330.1982673426815
 20
21.29539773261525
 30
0.0
 10
-328.7474159342843
 20
17.05157374780166
 30
0.0
 10
-326.9825977597667
 20
12.95721737456799
 30
0.0
 10
-324.9772589807852
 20
9.026833118433538
 30
0.0
 10
-322.7669778868963
 20
5.274576562901132
 30
0.0
 10
-320.2878281789735
 20
1.570161763843225
 30
0.0
 10
-317.543162359408
 20
-2.080772679035961
 30
0.0
 10
-314.5374072149389
 20
-5.672871366043649
 30
0.0
 10
-311.2752029985315
 20
-9.200948982782592
 30
0.0
 10
-307.7616026940124
 20
-12.66000947214602
 30
0.0
 10
-304.001979524159
 20
-16.04524061701865
 30
0.0
 10
-300.0020219148634
 20
-19.35200662878976
 30
0.0
 10
-295.7677141704777
 20
-22.57583722073973
 30
0.0
 10
-291.3053580513442
 20
-25.71239638683961
 30
0.0
 10
-286.6215403936293
 20
-28.75749986654342
 30
0.0
 10
-281.7231265068095
 20
-31.7071097009173
 30
0.0
 10
-276.6172261966589
 20
-34.55734707336573
 30
0.0
 10
-271.3112265326509
 20
-37.30446079962913
 30
0.0
 10
-265.8128177966466
 20
-39.94484255787056
 30
0.0
 10
-260.1299321307627
 20
-42.47496479849342
 30
0.0
 10
-254.2709950649591
 20
-44.89162599202663
 30
0.0
 10
-248.2440213905164
 20
-47.19105378082095
 30
0.0
 10
-242.0600380865401
 20
-49.37227127487911
 30
0.0
 10
-235.7203973891125
 20
-51.42456613072603
 30
0.0
 10
-230.2263767967054
 20
-53.08368042977047
 30
0.0
 10
-226.7969110612011
 20
-54.00720331612604
 30
0.0
 10
-225.5768866531899
 20
-54.33574442124517
 30
0.0
  0
SPLINE
  5
1D6
330
1C4
100
AcDbEntity
  8
0
  6
Continuous
 62
     7
370
    25
100
AcDbSpline
210
0.0
220
0.0
230
1.0
 70
     8
 71
     3
 72
    14
 73
    10
 74
     0
 42
0.000000001
 43
0.00000001
 40
0.0
 40
0.0
 40
0.0
 40
0.0
 40
0.25
 40
0.25
 40
0.5
 40
0.5
 40
0.75
 40
0.75
 40
1.0
 40
1.0
 40
1.0
 40
1.0
 10
40.25703124346143
 20
-23.38559146557746
 30
0.0
 10
86.69904627675052
 20
-36.00753601961752
 30
0.0
 10
140.9784832791391
 20
-38.61077634603501
 30
0.0
 10
241.3152857087366
 20
-22.63375312375769
 30
0.0
 10
283.2706879764895
 20
-4.706661283435019
 30
0.0
 10
332.2843247109978
 20
43.13215075193963
 30
0.0
 10
337.3387866104842
 20
71.08812749284948
 30
0.0
 10
306.3177339920565
 20
122.7654010588162
 30
0.0
 10
271.5104202930554
 20
144.3740306748751
 30
0.0
 10
225.0684052597663
 20
156.9959752289151
 30
0.0
  0
SPLINE
  5
1DC
330
1C4
100
AcDbEntity
  8
0
  6
Continuous
 62
     7
370
    25
100
AcDbSpline
210
0.0
220
0.0
230
1.0
 70
     8
 71
     3
 72
    64
 73
    60
 74
     0
 42
0.000000001
 43
0.00000001
 40
0.0
 40
0.0
 40
0.0
 40
0.0
 40
0.0023885885243194
 40
0.0047765177248717
 40
0.0071639217279585
 40
0.0095509347484142
 40
0.0119376910670317
 40
0.0143243250079329
 40
0.0167109709159024
 40
0.0190977631337041
 40
0.0214848359793994
 40
0.0238723237236857
 40
0.026260360567276
 40
0.0286490806183362
 40
0.0434544145213859
 40
0.0582606233425627
 40
0.0735060597266646
 40
0.088752364591069
 40
0.1043850313807701
 40
0.1200185552691841
 40
0.1359754356819927
 40
0.1519331905748459
 40
0.1843415545732702
 40
0.2170946803745513
 40
0.2500229487749599
 40
0.2829512171753665
 40
0.3157043429766435
 40
0.3481127069750641
 40
0.380017308587126
 40
0.4112740653618535
 40
0.4417570570548415
 40
0.4713605868992761
 40
0.5000000644704581
 40
0.5286395420416401
 40
0.5582430718860776
 40
0.5887260635790628
 40
0.6199828203537959
 40
0.6518874219658497
 40
0.6842957859642755
 40
0.7170489117655453
 40
0.7499771801659563
 40
0.7829054485663609
 40
0.8156585743676456
 40
0.8480669383660698
 40
0.864023818469531
 40
0.8799815736927594
 40
0.8956142400704283
 40
0.9112477643923403
 40
0.9264932006656778
 40
0.941739505594975
 40
0.956544839461876
 40
0.9713510483485027
 40
0.9754453418533033
 40
0.9795379790893132
 40
0.9836296363079846
 40
0.9877209902467251
 40
0.9918127177934214
 40
0.9959054956505926
 40
1.0
 40
1.0
 40
1.0
 40
1.0
 10
221.1892955230597
 20
153.2098452062825
 30
0.0
 10
221.6083180658503
 20
153.0953668655233
 30
0.0
 10
222.446247488345
 20
152.8664417835415
 30
0.0
 10
223.6966145866714
 20
152.5169589995163
 30
0.0
 10
224.9419466676518
 20
152.1630834383054
 30
0.0
 10
226.1817913179985
 20
151.8043735436985
 30
0.0
 10
227.4162697108537
 20
151.4409475977279
 30
0.0
 10
228.6453493645245
 20
151.0727739202979
 30
0.0
 10
229.8690389862909
 20
150.6998609939804
 30
0.0
 10
231.087336154034
 20
150.3222065851195
 30
0.0
 10
232.3002417802183
 20
149.9398111679252
 30
0.0
 10
233.5077545690104
 20
149.5526751021829
 30
0.0
 10
234.7098787259463
 20
149.1607964977151
 30
0.0
 10
237.9799479985686
 20
148.0770383473698
 30
0.0
 10
243.2313149324715
 20
146.2316879753515
 30
0.0
 10
250.3501459397596
 20
143.4714041922174
 30
0.0
 10
257.2764051036183
 20
140.5125663803634
 30
0.0
 10
264.0403545103027
 20
137.3290709963602
 30
0.0
 10
270.5517829138764
 20
133.9524618861397
 30
0.0
 10
276.8273451235464
 20
130.3610444383342
 30
0.0
 10
282.7910224440291
 20
126.5880374788501
 30
0.0
 10
290.350642331804
 20
121.282453164121
 30
0.0
 10
298.8845895606703
 20
114.2274335338939
 30
0.0
 10
307.4551125211692
 20
105.1992467324722
 30
0.0
 10
314.2108889577918
 20
95.71379736115301
 30
0.0
 10
319.0283144161084
 20
85.9198342102892
 30
0.0
 10
321.846467679573
 20
75.97526622821285
 30
0.0
 10
322.6680373177131
 20
66.03959729161596
 30
0.0
 10
321.5571238246336
 20
56.26548293243257
 30
0.0
 10
318.6320909967292
 20
46.79156276941818
 30
0.0
 10
314.0552099203665
 20
37.73688707190581
 30
0.0
 10
308.020289550831
 20
29.19734267526786
 30
0.0
 10
300.6528453241191
 20
21.14907493636654
 30
0.0
 10
291.9111264178264
 20
13.47430560823089
 30
0.0
 10
281.6299205659539
 20
6.088810618799109
 30
0.0
 10
269.7001535683125
 20
-0.9675082385929636
 30
0.0
 10
256.1661297214924
 20
-7.558131965862441
 30
0.0
 10
241.1270795688363
 20
-13.54687722477694
 30
0.0
 10
224.7384125137491
 20
-18.8051725991593
 30
0.0
 10
207.2086285008297
 20
-23.21960723216158
 30
0.0
 10
188.7918643993716
 20
-26.69901551254688
 30
0.0
 10
169.7756014615073
 20
-29.18017679718458
 30
0.0
 10
150.4680169154582
 20
-30.63169138089185
 30
0.0
 10
134.3438593485666
 20
-30.9851152732987
 30
0.0
 10
121.5734404166722
 20
-30.76544006485963
 30
0.0
 10
112.1603538424072
 20
-30.35934000044007
 30
0.0
 10
102.8619539827274
 20
-29.71813035114707
 30
0.0
 10
93.7750709289304
 20
-28.85542939970907
 30
0.0
 10
84.85485520958787
 20
-27.77633651701448
 30
0.0
 10
76.20345414770246
 20
-26.50148552978527
 30
0.0
 10
67.76125675950448
 20
-25.03264343896709
 30
0.0
 10
61.52412811137416
 20
-23.77794439917872
 30
0.0
 10
57.32209853527355
 20
-22.85784917668769
 30
0.0
 10
55.09056897020784
 20
-22.35169508845817
 30
0.0
 10
52.8724227089524
 20
-21.83091096225563
 30
0.0
 10
50.6675513027815
 20
-21.29558745455901
 30
0.0
 10
48.47631448053092
 20
-20.74537781332992
 30
0.0
 10
46.29738245784645
 20
-20.18157904335533
 30
0.0
 10
44.85665607706718
 20
-19.79352791982798
 30
0.0
 10
44.13614098016885
 20
-19.59946144294523
 30
0.0
  0
SPLINE
  5
1DE
330
1C4
100
AcDbEntity
  8
0
  6
Continuous
 62
     7
370
    25
100
AcDbSpline
210
0.0
220
0.0
230
1.0
 70
     8
 71
     3
 72
    64
 73
    60
 74
     0
 42
0.000000001
 43
0.00000001
 40
0.0
 40
0.0
 40
0.0
 40
0.0
 40
0.0023885885205236
 40
0.0047765177179702
 40
0.0071639217186416
 40
0.009550934737372
 40
0.0119376910549544
 40
0.0143243249955101
 40
0.0167109709038234
 40
0.0190977631226577
 40
0.0214848359700738
 40
0.0238723237167683
 40
0.0262603605634532
 40
0.0286490806182937
 40
0.043454414640685
 40
0.058260623342831
 40
0.0735060602441351
 40
0.0887523645919085
 40
0.1043850309531139
 40
0.1200185552671297
 40
0.1359754349882425
 40
0.1519331905751321
 40
0.1843415545735468
 40
0.2170946803748146
 40
0.2500229487752098
 40
0.2829512171756176
 40
0.3157043429768872
 40
0.3481127069753029
 40
0.3800173085873509
 40
0.4112740653620753
 40
0.4417570570550552
 40
0.4713605868994853
 40
0.5000000644706611
 40
0.528639542041837
 40
0.5582430718862642
 40
0.588726063579247
 40
0.6199828203539657
 40
0.6518874219660218
 40
0.6842957859644324
 40
0.7170489117657093
 40
0.7499771801661126
 40
0.7829054485665118
 40
0.8156585743677761
 40
0.8480669383661906
 40
0.864023818650811
 40
0.8799815736930564
 40
0.8956142403716404
 40
0.9112477643927528
 40
0.9264932009466044
 40
0.9417395055952226
 40
0.9565448395816459
 40
0.971351048348545
 40
0.9754453418594061
 40
0.9795379790994598
 40
0.9836296363201542
 40
0.9877209902588933
 40
0.9918127178035616
 40
0.995905495656677
 40
1.0
 40
1.0
 40
1.0
 40
1.0
 10
-221.1892955230566
 20
52.51030696223093
 30
0.0
 10
-221.6083180651805
 20
52.62478530280916
 30
0.0
 10
-222.4462474864628
 20
52.85371038446195
 30
0.0
 10
-223.6966145831524
 20
53.20319316804334
 30
0.0
 10
-224.9419466628594
 20
53.55706872890903
 30
0.0
 10
-226.1817913122962
 20
53.91577862326962
 30
0.0
 10
-227.4162697046051
 20
54.27920456909255
 30
0.0
 10
-228.6453493580932
 20
54.6473782464738
 30
0.0
 10
-229.8690389800403
 20
55.02029117284135
 30
0.0
 10
-231.0873361483276
 20
55.39794558185113
 30
0.0
 10
-232.3002417754202
 20
55.78034099929245
 30
0.0
 10
-233.5077545654805
 20
56.16747706538334
 30
0.0
 10
-234.7098787240635
 20
56.55935567028769
 30
0.0
 10
-237.9799480179231
 20
57.64311382747881
 30
0.0
 10
-243.2313149562694
 20
59.4884641970587
 30
0.0
 10
-250.350146037477
 20
62.24874801761104
 30
0.0
 10
-257.2764051869289
 20
65.20758581927981
 30
0.0
 10
-264.0403545280598
 20
68.39108117606388
 30
0.0
 10
-270.5517828145478
 20
71.76769027062602
 30
0.0
 10
-276.8273449807062
 20
75.35910764209585
 30
0.0
 10
-282.7910223937268
 20
79.13211462011948
 30
0.0
 10
-290.3506422386178
 20
84.43769895173924
 30
0.0
 10
-298.8845895676313
 20
91.49271863195878
 30
0.0
 10
-307.455112519273
 20
100.5209054367615
 30
0.0
 10
-314.2108889582923
 20
110.0063548071655
 30
0.0
 10
-319.0283144159622
 20
119.8003179582752
 30
0.0
 10
-321.846467679616
 20
129.7448859402861
 30
0.0
 10
-322.6680373176962
 20
139.6805548769001
 30
0.0
 10
-321.5571238246411
 20
149.4546692360791
 30
0.0
 10
-318.6320909967208
 20
158.9285893990932
 30
0.0
 10
-314.0552099203701
 20
167.9832650966073
 30
0.0
 10
-308.0202895508248
 20
176.5228094932436
 30
0.0
 10
-300.6528453241186
 20
184.5710772321466
 30
0.0
 10
-291.911126417821
 20
192.2458465602802
 30
0.0
 10
-281.6299205659553
 20
199.6313415497147
 30
0.0
 10
-269.7001535683087
 20
206.6876604071034
 30
0.0
 10
-256.1661297214917
 20
213.2782841343755
 30
0.0
 10
-241.1270795688357
 20
219.2670293932885
 30
0.0
 10
-224.7384125137472
 20
224.5253247676754
 30
0.0
 10
-207.2086285008265
 20
228.9397594006671
 30
0.0
 10
-188.7918643993584
 20
232.4191676810857
 30
0.0
 10
-169.775601461515
 20
234.9003289655887
 30
0.0
 10
-150.4680169154074
 20
236.3518435498081
 30
0.0
 10
-134.3438593126956
 20
236.7052674414326
 30
0.0
 10
-121.573440380447
 20
236.4855922342806
 30
0.0
 10
-112.1603537473743
 20
236.0794921631363
 30
0.0
 10
-102.8619539232597
 20
235.4382825159997
 30
0.0
 10
-93.77507081584278
 20
234.5755815561422
 30
0.0
 10
-84.85485515645212
 20
233.4964886765632
 30
0.0
 10
-76.20345407140573
 20
232.2216376868001
 30
0.0
 10
-67.76125673886301
 20
230.752795600821
 30
0.0
 10
-61.52412808811632
 20
229.4980965630013
 30
0.0
 10
-57.32209853245912
 20
228.5780013443747
 30
0.0
 10
-55.09056896522742
 20
228.0718472556057
 30
0.0
 10
-52.87242270290894
 20
227.5510631291068
 30
0.0
 10
-50.66755129673345
 20
227.0157396214169
 30
0.0
 10
-48.47631447554937
 20
226.4655299804807
 30
0.0
 10
-46.29738245499745
 20
225.9017312110916
 30
0.0
 10
-44.85665607599647
 20
225.5136800880503
 30
0.0
 10
-44.1361409801658
 20
225.3196136114586
 30
0.0
  0
SPLINE
  5
1E1
330
1C4
100
AcDbEntity
  8
0
  6
Continuous
 62
     7
370
    25
100
AcDbSpline
210
0.0
220
0.0
230
1.0
 70
     8
 71
     3
 72
    14
 73
    10
 74
     0
 42
0.000000001
 43
0.00000001
 40
0.0
 40
0.0
 40
0.0
 40
0.0
 40
0.2499999999999996
 40
0.2499999999999996
 40
0.4999999999999997
 40
0.4999999999999997
 40
0.7499999999999998
 40
0.7499999999999998
 40
1.0
 40
1.0
 40
1.0
 40
1.0
 10
-40.25703124346144
 20
229.1057436340908
 30
0.0
 10
-86.69904627675022
 20
241.7276881881305
 30
0.0
 10
-140.9784832791391
 20
244.3309285145477
 30
0.0
 10
-241.3152857087352
 20
228.35390529227
 30
0.0
 10
-283.2706879764877
 20
210.4268134519471
 30
0.0
 10
-332.2843247109943
 20
162.5880014165726
 30
0.0
 10
-337.33878661048
 20
134.6320246756626
 30
0.0
 10
-306.317733992051
 20
82.9547511096967
 30
0.0
 10
-271.5104202930492
 20
61.34612149363812
 30
0.0
 10
-225.0684052597601
 20
48.72417693959863
 30
0.0
  0
LWPOLYLINE
  5
1E4
330
1C4
100
AcDbEntity
  8
0
  6
Continuous
 62
     7
370
    25
100
AcDbPolyline
 90
       27
 70
   128
 43
0.0
 10
160.5278705374
 20
0.5711989818
 10
163.7830470642
 20
3.9088555613
 10
167.0288461833
 20
7.5579061217
 10
170.2559175011
 20
11.5078385956
 10
173.4549645744
 20
15.7472741449
 10
176.6167716916
 20
20.2639999401
 10
179.7322304203
 20
25.0450043429
 10
182.7923658476
 20
30.0765143898
 10
185.7883624336
 20
35.3440354687
 10
188.7115894081
 20
40.8323930746
 10
191.5536256328
 20
46.5257765235
 10
194.3062838613
 20
52.4077844997
 10
196.9616343243
 20
58.4614723041
 10
199.5120275739
 20
64.6694006678
 10
201.9501165193
 20
71.0136859907
 10
204.2688775923
 20
77.4760518598
 10
206.4616309806
 20
84.0378816997
 10
208.522059871
 20
90.6802724024
 10
210.4442286463
 20
97.3840887825
 10
212.2225999845
 20
104.1300187016
 10
213.8520508108
 20
110.8986287022
 10
215.3278870556
 20
117.6704199905
 10
216.6458571775
 20
124.4258846082
 10
217.8021644106
 20
131.1455616303
 10
218.7934777022
 20
137.8100932277
 10
219.6169413089
 20
144.4002804324
 10
220.2701830233
 20
150.8971384453
  0
LWPOLYLINE
  5
1ED
330
1C4
100
AcDbEntity
  8
0
  6
Continuous
 62
     7
370
    25
100
AcDbPolyline
 90
       27
 70
   128
 43
0.0
 10
-45.0552534799
 20
223.0069068505
 10
-45.7084951943
 20
216.5100488376
 10
-46.531958801
 20
209.9198616329
 10
-47.5232720926
 20
203.2553300355
 10
-48.6795793257
 20
196.5356530134
 10
-49.9975494476
 20
189.7801883957
 10
-51.4733856924
 20
183.0083971074
 10
-53.1028365187
 20
176.2397871068
 10
-54.8812078569
 20
169.4938571876
 10
-56.8033766322
 20
162.7900408076
 10
-58.8638055226
 20
156.1476501049
 10
-61.056558911
 20
149.585820265
 10
-63.375319984
 20
143.1234543958
 10
-65.8134089293
 20
136.779169073
 10
-68.3638021789
 20
130.5712407093
 10
-71.019152642
 20
124.5175529049
 10
-73.7718108705
 20
118.6355449287
 10
-76.6138470951
 20
112.9421614798
 10
-79.5370740696
 20
107.4538038739
 10
-82.5330706557
 20
102.186282795
 10
-85.5932060829
 20
97.154772748
 10
-88.7086648117
 20
92.3737683452
 10
-91.8704719288
 20
87.8570425501
 10
-95.0695190021
 20
83.6176070008
 10
-98.2965903199
 20
79.6676745268
 10
-101.542389439
 20
76.0186239664
 10
-104.7975659658
 20
72.680967387
  0
LWPOLYLINE
  5
1EF
330
1C4
100
AcDbEntity
  8
0
  6
Continuous
 62
     7
370
    25
100
AcDbPolyline
 90
       42
 70
   128
 43
0.0
 10
-30.9546342587
 20
17.8416466217
 10
-29.1432984126
 20
19.4113910985
 10
-27.0329128876
 20
20.8787010957
 10
-24.645133095
 20
22.228520027
 10
-22.0044608866
 20
23.4469969237
 10
-19.1379931328
 20
24.5216285639
 10
-16.0751436715
 20
25.4413877728
 10
-12.8473414831
 20
26.1968365763
 10
-9.4877081858
 20
26.7802230474
 10
-6.0307181636
 20
27.1855608513
 10
-2.5118448122
 20
27.4086906738
 10
1.0328034661
 20
27.4473229009
 10
4.5668537832
 20
27.3010611137
 10
8.0540420005
 20
26.9714061561
 10
11.4585848481
 20
26.4617407339
 10
14.7455471092
 20
25.7772947042
 10
17.881200103
 20
24.9250914094
 10
20.8333677866
 20
23.9138756086
 10
23.5717569247
 20
22.7540237441
 10
26.0682679391
 20
21.4574374657
 10
28.2972832484
 20
20.0374215032
 10
30.2359301392
 20
18.508547142
 10
31.8643154711
 20
16.8865027018
 10
33.1657298069
 20
15.1879325536
 10
34.1268188745
 20
13.4302663256
 10
34.7377205994
 20
11.631540052
 10
34.9921663034
 20
9.8102110982
 10
34.8875450292
 20
7.984968764
 10
34.4249303325
 20
6.1745425058
 10
33.6090692663
 20
4.3975097468
 10
32.448333669
 20
2.6721052477
 10
30.9546342587
 20
1.0160339938
 10
29.1432984126
 20
-0.553710483
 10
27.0329128876
 20
-2.0210204802
 10
24.645133095
 20
-3.3708394116
 10
22.0044608866
 20
-4.5893163083
 10
19.1379931328
 20
-5.6639479485
 10
16.0751436715
 20
-6.5837071574
 10
12.8473414831
 20
-7.3391559609
 10
9.4877081858
 20
-7.9225424319
 10
6.0307181636
 20
-8.3278802359
 10
4.4375411239
 20
-8.4520194447
  0
LWPOLYLINE
  5
1F0
330
1C4
100
AcDbEntity
  8
0
  6
Continuous
 62
     7
370
    25
100
AcDbPolyline
 90
       11
 70
   128
 43
0.0
 10
-31.1641124175
 20
1.2237471367
 10
-31.8643154711
 20
1.9711779137
 10
-33.1657298069
 20
3.6697480619
 10
-34.1268188745
 20
5.4274142898
 10
-34.7377205994
 20
7.2261405635
 10
-34.9921663034
 20
9.0474695173
 10
-34.8875450292
 20
10.8727118514
 10
-34.4249303325
 20
12.6831381097
 10
-33.6090692663
 20
14.4601708687
 10
-32.448333669
 20
16.1855753677
 10
-30.9546342587
 20
17.8416466217
  0
LWPOLYLINE
  5
1F2
330
1C4
100
AcDbEntity
  8
0
  6
Continuous
 62
     7
370
    25
100
AcDbPolyline
 90
       33
 70
   128
 43
0.0
 10
19.3792500584
 20
-5.5820649244
 10
19.627484208
 20
-5.3774892805
 10
20.9754703209
 20
-4.0618135099
 10
21.9926607367
 20
-2.669497862
 10
22.6630137549
 20
-1.2224999863
 10
22.975957508
 20
0.2563600962
 10
22.926556686
 20
1.7437598787
 10
22.5155903694
 20
3.2162421781
 10
21.7495397425
 20
4.6505850689
 10
20.6404858813
 20
6.0241681068
 10
19.2059192278
 20
7.3153290668
 10
17.468463755
 20
8.5037055692
 10
15.4555201736
 20
9.5705562068
 10
13.1988338063
 20
10.4990561077
 10
10.7339939454
 20
11.2745622737
 10
8.0998725878
 20
11.8848445094
 10
5.3380114008
 20
12.3202782993
 10
2.4919665852
 20
12.5739965925
 10
-0.393378032
 20
12.6419980998
 10
-3.2725188427
 20
12.523210397
 10
-6.1000500763
 20
12.2195068371
 10
-8.8313798762
 20
11.7356770065
 10
-11.4234335398
 20
11.0793511909
 10
-13.8353328325
 20
10.2608800402
 10
-16.0290406616
 20
9.2931713336
 10
-17.9699609442
 20
8.1914864155
 10
-19.627484208
 20
6.973199515
 10
-20.9754703209
 20
5.6575237443
 10
-21.9926607367
 20
4.2652080964
 10
-22.6630137549
 20
2.8182102207
 10
-22.975957508
 20
1.3393501382
 10
-22.926556686
 20
-0.1480496443
 10
-22.7111649341
 20
-1.0735828646
  0
LWPOLYLINE
  5
1F3
330
1C4
100
AcDbEntity
  8
0
  6
Continuous
 62
     7
370
    25
100
AcDbPolyline
 90
       26
 70
   128
 43
0.0
 10
-22.9869540785
 20
0.3989275586
 10
-22.8646037039
 20
1.2834576728
 10
-22.3719832443
 20
2.7492791157
 10
-21.5265432446
 20
4.1717427846
 10
-20.3416167986
 20
5.5284155777
 10
-18.8358909041
 20
6.7979019547
 10
-17.0331117581
 20
7.9601813569
 10
-14.9617102646
 20
8.996923944
 10
-12.6543536625
 20
9.891779666
 10
-10.1474303438
 20
10.6306361135
 10
-7.4804759868
 20
11.2018410792
 10
-4.6955500549
 20
11.5963863193
 10
-1.8365724936
 20
11.8080496199
 10
1.051368913
 20
11.8334929241
 10
3.9227296038
 20
11.672314976
 10
6.7322265054
 20
11.327057648
 10
9.4355521734
 20
10.8031658544
 10
11.9900735471
 20
10.1089016818
 10
14.3555042985
 20
9.2552140909
 10
16.4945401715
 20
8.255566245
 10
18.3734472926
 20
7.1257231878
 10
19.9625941741
 20
5.8835032192
 10
21.2369190205
 20
4.5484968902
 10
22.1763249676
 20
3.1417580481
 10
22.7659970224
 20
1.6854718048
 10
22.9869540785
 20
0.3989275586
  0
LWPOLYLINE
  5
1F5
330
1C4
100
AcDbEntity
  8
0
  6
Continuous
 62
    60
370
    25
100
AcDbPolyline
 90
       48
 70
   128
 43
0.0
 10
331.5511358182
 20
54.2456992055
 10
330.9879470163
 20
51.7882739003
 10
329.7324030769
 20
47.5225520321
 10
328.1311319457
 20
43.2876509411
 10
326.1869427961
 20
39.0910000828
 10
323.9032463968
 20
34.9399618088
 10
321.2840491271
 20
30.8418184508
 10
318.3339459491
 20
26.8037595448
 10
315.0581123463
 20
22.8328692183
 10
311.4622952438
 20
18.9361137623
 10
307.5528029267
 20
15.1203294098
 10
303.3364939731
 20
11.3922103433
 10
298.8207652216
 20
7.7582969505
 10
294.0135387947
 20
4.2249643502
 10
288.9232482013
 20
0.7984112085
 10
283.5588235406
 20
-2.515351136
 10
277.9296758364
 20
-5.7105092183
 10
272.0456805266
 20
-8.7814576453
 10
265.9171601383
 20
-11.7228089299
 10
259.5548661788
 20
-14.5294029425
 10
252.9699602735
 20
-17.1963159635
 10
246.1739945851
 20
-19.7188693213
 10
239.1788915466
 20
-22.0926376001
 10
231.9969229457
 20
-24.3134564037
 10
224.6406883958
 20
-26.3774296614
 10
217.1230932319
 20
-28.2809364626
 10
209.4573258705
 20
-30.0206374096
 10
201.6568346723
 20
-31.5934804758
 10
193.7353043496
 20
-32.9967063601
 10
185.7066319582
 20
-34.2278533273
 10
177.5849025178
 20
-35.2847615275
 10
169.3843643015
 20
-36.1655767843
 10
161.1194038399
 20
-36.8687538487
 10
152.8045206821
 20
-37.393059109
 10
144.4543019587
 20
-37.7375727557
 10
136.0833967906
 20
-37.9016903948
 10
127.7064905901
 20
-37.8851241082
 10
119.3382792969
 20
-37.6879029587
 10
110.9934435974
 20
-37.3103729394
 10
102.6866231689
 20
-36.753196366
 10
94.4323909971
 20
-36.0173507157
 10
86.2452278101
 20
-35.1041269118
 10
78.1394966741
 20
-34.0151270591
 10
70.1294177958
 20
-32.7522616335
 10
62.2290435755
 20
-31.3177461299
 10
54.4522339541
 20
-29.7140971762
 10
46.8126320983
 20
-27.9441281173
 10
39.3236404656
 20
-26.0109440806
  0
LWPOLYLINE
  5
1F6
330
1C4
100
AcDbEntity
  8
0
  6
Continuous
 62
    60
370
    25
100
AcDbPolyline
 90
       48
 70
   128
 43
0.0
 10
331.5511358182
 20
-45.1857076759
 10
330.9879470163
 20
-47.6431329812
 10
329.7324030769
 20
-51.9088548494
 10
328.1311319457
 20
-56.1437559404
 10
326.1869427961
 20
-60.3404067987
 10
323.9032463968
 20
-64.4914450727
 10
321.2840491271
 20
-68.5895884306
 10
318.3339459491
 20
-72.6276473366
 10
315.0581123463
 20
-76.5985376631
 10
311.4622952438
 20
-80.4952931192
 10
307.5528029267
 20
-84.3110774716
 10
303.3364939731
 20
-88.0391965381
 10
298.8207652216
 20
-91.6731099309
 10
294.0135387947
 20
-95.2064425312
 10
288.9232482013
 20
-98.6329956729
 10
283.5588235406
 20
-101.9467580175
 10
277.9296758364
 20
-105.1419160997
 10
272.0456805266
 20
-108.2128645267
 10
265.9171601383
 20
-111.1542158113
 10
259.5548661788
 20
-113.9608098239
 10
252.9699602735
 20
-116.627722845
 10
246.1739945851
 20
-119.1502762027
 10
239.1788915466
 20
-121.5240444815
 10
231.9969229457
 20
-123.7448632852
 10
224.6406883958
 20
-125.8088365428
 10
217.1230932319
 20
-127.712343344
 10
209.4573258705
 20
-129.452044291
 10
201.6568346723
 20
-131.0248873573
 10
193.7353043496
 20
-132.4281132415
 10
185.7066319582
 20
-133.6592602088
 10
177.5849025178
 20
-134.7161684089
 10
169.3843643015
 20
-135.5969836658
 10
161.1194038399
 20
-136.3001607301
 10
152.8045206821
 20
-136.8244659905
 10
144.4543019587
 20
-137.1689796372
 10
136.0833967906
 20
-137.3330972763
 10
127.7064905901
 20
-137.3165309896
 10
119.3382792969
 20
-137.1193098402
 10
110.9934435974
 20
-136.7417798208
 10
102.6866231689
 20
-136.1846032474
 10
94.4323909971
 20
-135.4487575972
 10
86.2452278101
 20
-134.5355337932
 10
78.1394966741
 20
-133.4465339406
 10
70.1294177958
 20
-132.1836685149
 10
62.2290435755
 20
-130.7491530114
 10
54.4522339541
 20
-129.1455040576
 10
46.8126320983
 20
-127.3755349988
 10
39.3236404656
 20
-125.442350962
  0
LWPOLYLINE
  5
1F7
330
1C4
100
AcDbEntity
  8
0
  6
Continuous
 62
    60
370
    25
100
AcDbPolyline
 90
       27
 70
   128
 43
0.0
 10
220.2701830233
 20
150.8971384453
 10
227.4285712893
 20
148.8475959553
 10
234.4065673679
 20
146.639186364
 10
241.1908882469
 20
144.2761135045
 10
247.7686195861
 20
141.7628756202
 10
254.1272402998
 20
139.1042568024
 10
260.2546463923
 20
136.3053178831
 10
266.1391739976
 20
133.3713868016
 10
271.7696215832
 20
130.3080484624
 10
277.1352712719
 20
127.1211341043
 10
282.2259092447
 20
123.8167101997
 10
287.0318451828
 20
120.4010669075
 10
291.5439307141
 20
116.8807060987
 10
295.7535768272
 20
113.2623289803
 10
299.6527702215
 20
109.5528233387
 10
303.2340885608
 20
105.7592504288
 10
306.4907146021
 20
101.8888315322
 10
309.4164491726
 20
97.9489342112
 10
312.0057229702
 20
93.9470582844
 10
314.2536071652
 20
89.8908215501
 10
316.1558227822
 20
85.7879452853
 10
317.7087488456
 20
81.6462395483
 10
318.9094292725
 20
77.4735883113
 10
319.7555784994
 20
73.2779344531
 10
320.2455858331
 20
69.0672646393
 10
320.3785185169
 20
64.8495941192
 10
320.378469518
 20
64.8450943748
  0
SPLINE
  5
1F9
330
1C4
100
AcDbEntity
  8
0
  6
Continuous
 62
    60
370
    25
100
AcDbSpline
210
0.0
220
0.0
230
1.0
 70
     8
 71
     3
 72
    17
 73
    13
 74
     0
 42
0.000000001
 43
0.00000001
 40
0.0
 40
0.0
 40
0.0
 40
0.0
 40
0.1158473377979791
 40
0.2352870564067549
 40
0.3580750393264606
 40
0.454074391731588
 40
0.550065357894254
 40
0.6478409982728291
 40
0.7461394797350661
 40
0.8444379611972191
 40
0.9422136015758295
 40
1.0
 40
1.0
 40
1.0
 40
1.0
 10
160.5278705373999
 20
0.5711989817958618
 30
0.0
 10
162.63453621803
 20
-0.0511966321219623
 30
0.0
 10
166.9131944612859
 20
-1.315288105458827
 30
0.0
 10
172.7793087298836
 20
-3.74442693048526
 30
0.0
 10
177.7438692617523
 20
-6.357314818302297
 30
0.0
 10
181.7797559442056
 20
-9.04876399421664
 30
0.0
 10
184.990618312217
 20
-11.70642439513758
 30
0.0
 10
187.6802880739285
 20
-14.54093632582325
 30
0.0
 10
189.8124658593031
 20
-17.52650921364316
 30
0.0
 10
191.3071753255835
 20
-20.60973068552174
 30
0.0
 10
192.1457573764633
 20
-23.32214288298636
 30
0.0
 10
192.2332614592427
 20
-25.00014099490125
 30
0.0
 10
192.265766470299
 20
-25.62346444962311
 30
0.0
  0
LWPOLYLINE
  5
1FA
330
1C4
100
AcDbEntity
  8
0
  6
Continuous
 62
    60
370
    25
100
AcDbPolyline
 90
        7
 70
   128
 43
0.0
 10
39.3236404656
 20
-125.442350962
 10
39.3415753077
 20
-125.7592960958
 10
39.394690608
 20
-126.0290512944
 10
39.4809451753
 20
-126.241250017
 10
39.5970242949
 20
-126.3877375855
 10
39.7384671115
 20
-126.4628845649
 10
39.7436558692
 20
-126.4641420813
  0
LWPOLYLINE
  5
1FD
330
1C4
100
AcDbEntity
  8
0
  6
Continuous
 62
    60
370
    25
100
AcDbPolyline
 90
       25
 70
   128
 43
0.0
 10
-226.0017960376
 20
46.0988243246
 10
-233.327039211
 20
48.1918318775
 10
-240.4756829595
 20
50.4409911001
 10
-247.4351861328
 20
52.842356203
 10
-254.1933393975
 20
55.3917143756
 10
-260.7382866563
 20
58.0845931775
 10
-267.0585458477
 20
60.9162683843
 10
-273.1430290896
 20
63.8817722753
 10
-278.9810621307
 20
66.9759023492
 10
-284.5624030773
 20
70.1932304503
 10
-289.8772603609
 20
73.5281122919
 10
-294.9163099157
 20
76.9746973581
 10
-299.6707115367
 20
80.5269391674
 10
-304.1321243877
 20
84.1786058808
 10
-308.2927216347
 20
87.9232912339
 10
-312.1452041762
 20
91.7544257762
 10
-315.6828134489
 20
95.6652883958
 10
-318.899343284
 20
99.6490181109
 10
-321.7891507951
 20
103.6986261058
 10
-324.3471662779
 20
107.807007992
 10
-326.5689021041
 20
111.9669562716
 10
-328.4504605941
 20
116.1711729818
 10
-329.9885408549
 20
120.412282498
 10
-331.180444571
 20
124.6828444728
 10
-331.5736987404
 20
126.4657959152
  0
LWPOLYLINE
  5
1FF
330
1C4
100
AcDbEntity
  8
0
  6
Continuous
 62
    60
370
    25
100
AcDbPolyline
 90
       25
 70
   128
 43
0.0
 10
-226.0017960376
 20
-53.3325825569
 10
-233.327039211
 20
-51.239575004
 10
-240.4756829595
 20
-48.9904157813
 10
-247.4351861328
 20
-46.5890506785
 10
-254.1933393975
 20
-44.0396925058
 10
-260.7382866563
 20
-41.3468137039
 10
-267.0585458477
 20
-38.5151384972
 10
-273.1430290896
 20
-35.5496346061
 10
-278.9810621307
 20
-32.4555045323
 10
-284.5624030773
 20
-29.2381764312
 10
-289.8772603609
 20
-25.9032945895
 10
-294.9163099157
 20
-22.4567095234
 10
-299.6707115367
 20
-18.904467714
 10
-304.1321243877
 20
-15.2528010006
 10
-308.2927216347
 20
-11.5081156475
 10
-312.1452041762
 20
-7.6769811053
 10
-315.6828134489
 20
-3.7661184856
 10
-318.899343284
 20
0.2176112295
 10
-321.7891507951
 20
4.2672192243
 10
-324.3471662779
 20
8.3756011105
 10
-326.5689021041
 20
12.5355493901
 10
-328.4504605941
 20
16.7397661004
 10
-329.9885408549
 20
20.9808756165
 10
-331.180444571
 20
25.2514375913
 10
-331.5736987404
 20
27.0343890339
  0
LWPOLYLINE
  5
200
330
1C4
100
AcDbEntity
  8
0
  6
Continuous
 62
    60
370
    25
100
AcDbPolyline
 90
       49
 70
   128
 43
0.0
 10
-320.3778902146
 20
136.9042368271
 10
-320.3785185169
 20
138.0393084804
 10
-320.1541235058
 20
142.2559511312
 10
-319.5728279485
 20
146.4635392939
 10
-318.6357383741
 20
150.6540635851
 10
-317.3446385858
 20
154.8195471038
 10
-315.7019862656
 20
158.9520606152
 10
-313.7109082955
 20
163.0437376452
 10
-311.3751948055
 20
167.0867894538
 10
-308.699291959
 20
171.0735198621
 10
-305.6882934892
 20
174.9963399023
 10
-302.3479310029
 20
178.8477822635
 10
-298.6845630697
 20
182.6205155061
 10
-294.7051631189
 20
186.3073580181
 10
-290.4173061644
 20
189.9012916851
 10
-285.8291543856
 20
193.3954752502
 10
-280.9494415903
 20
196.7832573364
 10
-275.7874565889
 20
200.0581891079
 10
-270.3530255135
 20
203.214036546
 10
-264.6564931124
 20
206.2447923156
 10
-258.7087030589
 20
209.1446872009
 10
-252.5209773092
 20
211.9082010873
 10
-246.1050945511
 20
214.5300734688
 10
-239.4732677822
 20
217.0053134626
 10
-232.6381210614
 20
219.3292093084
 10
-225.6126654792
 20
221.4973373385
 10
-218.4102743895
 20
223.505570398
 10
-211.0446579531
 20
225.3500857012
 10
-203.5298370396
 20
227.0273721082
 10
-195.8801165376
 20
228.534236809
 10
-188.110058125
 20
229.8678114012
 10
-180.2344525495
 20
231.0255573496
 10
-172.2682914739
 20
232.005270819
 10
-164.2267389387
 20
232.8050868692
 10
-156.1251024961
 20
233.4234830049
 10
-147.9788040716
 20
233.8592820738
 10
-139.8033506073
 20
234.1116545076
 10
-131.6143045434
 20
234.1801199012
 10
-123.4272541945
 20
234.0645479266
 10
-115.2577840765
 20
233.7651585818
 10
-107.1214452398
 20
233.2825217714
 10
-99.033725668
 20
232.617556222
 10
-91.0100207949
 20
231.7715277332
 10
-83.0656041989
 20
230.7460467685
 10
-75.2155985283
 20
229.5430653891
 10
-67.4749467152
 20
228.1648735384
 10
-59.8583835303
 20
226.6140946829
 10
-52.3804075344
 20
224.8936808185
 10
-45.0552534799
 20
223.0069068505
  0
SPLINE
  5
201
330
1C4
100
AcDbEntity
  8
0
  6
Continuous
 62
    60
370
    25
100
AcDbSpline
210
0.0
220
0.0
230
1.0
 70
     8
 71
     3
 72
    26
 73
    22
 74
     0
 42
0.000000001
 43
0.00000001
 40
0.0
 40
0.0
 40
0.0
 40
0.0
 40
0.0109468073713528
 40
0.0597255065896576
 40
0.1221251318479638
 40
0.1828186181460972
 40
0.2416846477356985
 40
0.3005544994964738
 40
0.3612479362977769
 40
0.4236437880097265
 40
0.4724267465455954
 40
0.5212054464569653
 40
0.5708910436341728
 40
0.6208423273501812
 40
0.6707936110661588
 40
0.7204792082433862
 40
0.7692621676008708
 40
0.8180408660062595
 40
0.8804404913616127
 40
0.9411330161156282
 40
1.0
 40
1.0
 40
1.0
 40
1.0
 10
-192.310871765304
 20
45.01998337005497
 30
0.0
 10
-192.3339857148791
 20
45.25205466607966
 30
0.0
 10
-192.460094844311
 20
46.51822983933295
 30
0.0
 10
-192.0449501051544
 20
49.11167329932777
 30
0.0
 10
-190.8755602901068
 20
52.71420464225876
 30
0.0
 10
-188.6334298200963
 20
56.41224339451204
 30
0.0
 10
-185.6005661263441
 20
59.87095751421591
 30
0.0
 10
-181.7696679601022
 20
63.11418506824037
 30
0.0
 10
-177.1000248888184
 20
66.14809485584988
 30
0.0
 10
-172.0144408040271
 20
68.70164516911633
 30
0.0
 10
-166.7913472747511
 20
70.78104998140597
 30
0.0
 10
-161.6305604515755
 20
72.43438228395902
 30
0.0
 10
-156.1272959241321
 20
73.82051053635539
 30
0.0
 10
-150.3302271945337
 20
74.91564423844737
 30
0.0
 10
-144.3446670167134
 20
75.69668977433116
 30
0.0
 10
-138.2824572310199
 20
76.15223722798193
 30
0.0
 10
-132.2107670307555
 20
76.28720472083101
 30
0.0
 10
-125.6188603015967
 20
76.0902305778377
 30
0.0
 10
-118.6290541675966
 20
75.45418351984526
 30
0.0
 10
-111.4248656841445
 20
74.33101121084948
 30
0.0
 10
-106.9840638350555
 20
73.2253546122957
 30
0.0
 10
-104.7975659658256
 20
72.68096738697201
 30
0.0
  0
LINE
  5
202
330
1C4
100
AcDbEntity
  8
0
  6
Continuous
 62
     7
370
    25
100
AcDbLine
 10
332.6627182516
 20
-34.3405496012
 30
0.0
 11
332.6627182516
 21
65.0908572803
 31
0.0
  0
LINE
  5
203
330
1C4
100
AcDbEntity
  8
0
  6
Continuous
 62
     7
370
    25
100
AcDbLine
 10
44.6606713635
 20
-19.3838043664
 30
0.0
 11
-220.6647651397
 21
52.7259640388
 31
0.0
  0
LINE
  5
204
330
1C4
100
AcDbEntity
  8
0
  6
Continuous
 62
     7
370
    25
100
AcDbLine
 10
-225.5929356431
 20
-54.3515562212
 30
0.0
 11
39.7325008601
 21
-126.4613246264
 31
0.0
  0
LINE
  5
205
330
1C4
100
AcDbEntity
  8
0
  6
Continuous
 62
     7
370
    25
100
AcDbLine
 10
-332.6627182516
 20
137.2006256854
 30
0.0
 11
-332.6627182516
 21
37.769218804
 31
0.0
  0
LINE
  5
206
330
1C4
100
AcDbEntity
  8
0
  6
Continuous
 62
     7
370
    25
100
AcDbLine
 10
225.5929356431
 20
157.2116323055
 30
0.0
 11
-39.7325008601
 21
229.3214007106
 31
0.0
  0
LINE
  5
207
330
1C4
100
AcDbEntity
  8
0
  6
Continuous
 62
     7
370
    25
100
AcDbLine
 10
39.3236404656
 20
-26.0109440806
 30
0.0
 11
39.3236404656
 21
-125.442350962
 31
0.0
  0
LINE
  5
208
330
1C4
100
AcDbEntity
  8
0
  6
Continuous
 62
     7
370
    25
100
AcDbLine
 10
44.1361409802
 20
-19.5994614429
 30
0.0
 11
-221.1892955231
 21
52.5103069622
 31
0.0
  0
LINE
  5
209
330
1C4
100
AcDbEntity
  8
0
  6
Continuous
 62
     7
370
    25
100
AcDbLine
 10
-44.1361409802
 20
225.3196136115
 30
0.0
 11
221.1892955231
 21
153.2098452063
 31
0.0
  0
LINE
  5
20A
330
1C4
100
AcDbEntity
  8
0
  6
Continuous
 62
     7
370
    25
100
AcDbLine
 10
-40.2570312435
 20
229.1057436341
 30
0.0
 11
225.0684052598
 21
156.9959752289
 31
0.0
  0
LINE
  5
20B
330
1C4
100
AcDbEntity
  8
0
  6
Continuous
 62
     7
370
    25
100
AcDbLine
 10
40.2570312435
 20
-23.3855914656
 30
0.0
 11
-225.0684052598
 21
48.7241769396
 31
0.0
  0
LINE
  5
20C
330
1C4
100
AcDbEntity
  8
0
  6
Continuous
 62
     7
370
    25
100
AcDbLine
 10
39.3236404656
 20
-26.0109440806
 30
0.0
 11
-226.0017960376
 21
46.0988243246
 31
0.0
  0
LINE
  5
20D
330
1C4
100
AcDbEntity
  8
0
  6
Continuous
 62
     7
370
    25
100
AcDbLine
 10
39.3236404656
 20
-125.442350962
 30
0.0
 11
-226.0017960376
 21
-53.3325825569
 31
0.0
  0
LINE
  5
20E
330
1C4
100
AcDbEntity
  8
0
  6
Continuous
 62
     7
370
    25
100
AcDbLine
 10
-226.0017960376
 20
-53.3325825569
 30
0.0
 11
-226.0017960376
 21
46.0988243246
 31
0.0
  0
LINE
  5
20F
330
1C4
100
AcDbEntity
  8
0
  6
Continuous
 62
     7
370
    25
100
AcDbLine
 10
-104.7975659658
 20
72.680967387
 30
0.0
 11
160.5278705374
 21
0.5711989818
 31
0.0
  0
LINE
  5
210
330
1C4
100
AcDbEntity
  8
0
  6
Continuous
 62
     7
370
    25
100
AcDbLine
 10
-45.0552534799
 20
223.0069068505
 30
0.0
 11
220.2701830233
 21
150.8971384453
 31
0.0
  0
ARC
  5
211
330
1C4
100
AcDbEntity
  8
0
  6
Continuous
 62
     7
370
    25
100
AcDbCircle
 10
279.0331579815
 20
65.0906150121
 30
0.0
 40
53.62602162108452
100
AcDbArc
 50
348.3324693912
 51
11.5477196287
  0
ARC
  5
212
330
1C4
100
AcDbEntity
  8
0
  6
Continuous
 62
     7
370
    25
100
AcDbCircle
 10
43.4135513623
 20
-25.986428427
 30
0.0
 40
4.089984371674276
100
AcDbArc
 50
140.5129436103
 51
180.3434369839
  0
ARC
  5
213
330
1C4
100
AcDbEntity
  8
0
  6
Continuous
 62
     7
370
    25
100
AcDbCircle
 10
278.9054209506
 20
-34.3102012411
 30
0.0
 40
53.75730586746888
100
AcDbArc
 50
348.3280718126
 51
359.9676540145
  0
ARC
  5
214
330
1C4
100
AcDbEntity
  8
0
  6
Continuous
 62
     7
370
    25
100
AcDbCircle
 10
267.3934683364
 20
65.7311023187
 30
0.0
 40
52.99240851560482
100
AcDbArc
 50
336.4567180664
 51
359.0419970961
  0
ARC
  5
215
330
1C4
100
AcDbEntity
  8
0
  6
Continuous
 62
     7
370
    25
100
AcDbCircle
 10
224.2727845506
 20
150.6454200128
 30
0.0
 40
4.010508839981521
100
AcDbArc
 50
140.2509397949
 51
176.4014815827
  0
ARC
  5
216
330
1C4
100
AcDbEntity
  8
0
  6
Continuous
 62
     7
370
    25
100
AcDbCircle
 10
-221.9118851409
 20
46.1233399782
 30
0.0
 40
4.089984371666627
100
AcDbArc
 50
140.5129436103
 51
180.3434369839
  0
ARC
  5
217
330
1C4
100
AcDbEntity
  8
0
  6
Continuous
 62
     7
370
    25
100
AcDbCircle
 10
-279.0331579815
 20
137.2008679536
 30
0.0
 40
53.62602162109446
100
AcDbArc
 50
168.3324693913
 51
191.5477196288
  0
ARC
  5
218
330
1C4
100
AcDbEntity
  8
0
  6
Continuous
 62
     7
370
    25
100
AcDbCircle
 10
-278.8406299398
 20
37.8066704887
 30
0.0
 40
53.82210134208004
100
AcDbArc
 50
180.0398688195
 51
191.5455002757
  0
ARC
  5
219
330
1C4
100
AcDbEntity
  8
0
  6
Continuous
 62
     7
370
    25
100
AcDbCircle
 10
-41.0526519527
 20
222.755188418
 30
0.0
 40
4.010508839979209
100
AcDbArc
 50
140.2509397949
 51
176.4014815827
  0
ARC
  5
21A
330
1C4
100
AcDbEntity
  8
0
  6
Continuous
 62
     7
370
    25
100
AcDbCircle
 10
-267.142465383
 20
137.8864345208
 30
0.0
 40
53.24448487228527
100
AcDbArc
 50
181.0569916263
 51
204.1700747684
  0
ARC
  5
21B
330
1C4
100
AcDbEntity
  8
0
  6
Continuous
 62
    60
370
    25
100
AcDbCircle
 10
225.5271732785
 20
156.6303323696
 30
0.0
 40
0.5866538975927154
100
AcDbArc
 50
84.6516529773
 51
141.4447919299
  0
ARC
  5
21C
330
1C4
100
AcDbEntity
  8
0
  6
Continuous
 62
    60
370
    25
100
AcDbCircle
 10
44.5776257222
 20
-19.9307432033
 30
0.0
 40
0.5519568662246246
100
AcDbArc
 50
80.3044885338
 51
143.1161340553
  0
ARC
  5
21D
330
1C4
100
AcDbEntity
  8
0
  6
Continuous
 62
    60
370
    25
100
AcDbCircle
 10
-220.7444328105
 20
52.1740139852
 30
0.0
 40
0.5576699735970791
100
AcDbArc
 50
81.7867341042
 51
142.9126236045
  0
ARC
  5
21E
330
1C4
100
AcDbEntity
  8
0
  6
Continuous
 62
    60
370
    25
100
AcDbCircle
 10
-224.9979836183
 20
-53.5213194598
 30
0.0
 40
1.021401484099559
100
AcDbArc
 50
169.3515604301
 51
234.3744174933
  0
ARC
  5
21F
330
1C4
100
AcDbEntity
  8
0
  6
Continuous
 62
    60
370
    25
100
AcDbCircle
 10
-39.7982632247
 20
228.7401007748
 30
0.0
 40
0.5866538975920383
100
AcDbArc
 50
84.6516529772
 51
141.4447919299
  0
VIEWPORT
  5
27E
330
1C4
100
AcDbEntity
  8
0
100
AcDbViewport
 10
0.0
 20
0.0
 30
0.0
 40
205.6
 41
156.0
 68
     1
 69
     1
 12
0.0
 22
0.0
 13
0.0
 23
0.0
 14
10.0
 24
10.0
 15
10.0
 25
10.0
 16
0.0
 26
0.0
 36
1.0
 17
0.0
 27
0.0
 37
0.0
 42
50.0
 43
0.0
 44
0.0
 45
541.7509727626
 50
0.0
 51
0.0
 72
   100
 90
   557152
  1

281
     0
 71
     1
 74
     0
110
0.0
120
0.0
130
0.0
111
1.0
121
0.0
131
0.0
112
0.0
122
1.0
132
0.0
 79
     0
146
0.0
  0
ENDBLK
  5
1C7
330
1C4
100
AcDbEntity
  8
0
100
AcDbBlockEnd
  0
BLOCK
  5
222
330
220
100
AcDbEntity
  8
0
100
AcDbBlockBegin
  2
*Paper_Space7
 70
     0
 10
0.0
 20
0.0
 30
0.0
  3
*Paper_Space7
  1

  0
SPLINE
  5
224
330
220
100
AcDbEntity
  8
0
  6
Continuous
 62
     7
370
    25
100
AcDbSpline
210
0.0
220
0.0
230
1.0
 70
     8
 71
     3
 72
    38
 73
    34
 74
     0
 42
0.000000001
 43
0.00000001
 40
0.0
 40
0.0
 40
0.0
 40
0.0
 40
0.0198335174618066
 40
0.055307337993265
 40
0.0874531734281013
 40
0.1197824327543691
 40
0.1522667255197722
 40
0.1848708506692547
 40
0.2175590189393918
 40
0.2503007486515877
 40
0.2830728667141086
 40
0.3158591279128446
 40
0.3486449925180212
 40
0.3814249836230135
 40
0.414196629469145
 40
0.4469587026141671
 40
0.4797107642007412
 40
0.5124527942621467
 40
0.5451849533990849
 40
0.5779074298009111
 40
0.6106203396894443
 40
0.6433236591882656
 40
0.6760171722819273
 40
0.7087004236219175
 40
0.7413726670136817
 40
0.7740328007771835
 40
0.8066792797881441
 40
0.8393099904329292
 40
0.8719220678394701
 40
0.9045116222774721
 40
0.9370733188705621
 40
0.9695997119633794
 40
0.9999999999999999
 40
0.9999999999999999
 40
0.9999999999999999
 40
0.9999999999999999
 10
339.860318717625
 20
98.01166894448382
 30
0.0
 10
339.7650988933237
 20
98.55283635795622
 30
0.0
 10
339.4995708539114
 20
100.0619246528337
 30
0.0
 10
338.7150498288037
 20
102.4228359933846
 30
0.0
 10
337.5697766020946
 20
105.0925931148471
 30
0.0
 10
336.169428008178
 20
107.6479229405464
 30
0.0
 10
334.4935873355902
 20
110.1784094218671
 30
0.0
 10
332.5411109942839
 20
112.6787779435741
 30
0.0
 10
330.3175275374257
 20
115.1447386305777
 30
0.0
 10
327.8271784875566
 20
117.5725612834986
 30
0.0
 10
325.0750065779323
 20
119.959122997095
 30
0.0
 10
322.0660000822581
 20
122.30163293
 30
0.0
 10
318.805207511985
 20
124.5976073285416
 30
0.0
 10
315.2977083179239
 20
126.8447425763893
 30
0.0
 10
311.5485223193758
 20
129.0408973587808
 30
0.0
 10
307.5628383723471
 20
131.1839174525287
 30
0.0
 10
303.3460956438005
 20
133.2716052110653
 30
0.0
 10
298.904016643667
 20
135.3017253483633
 30
0.0
 10
294.242632069493
 20
137.2720161937491
 30
0.0
 10
289.3682962079359
 20
139.1802044522275
 30
0.0
 10
284.2876956543827
 20
141.0240209073269
 30
0.0
 10
279.0078536563738
 20
142.8012157359388
 30
0.0
 10
273.5361318204646
 20
144.5095725928695
 30
0.0
 10
267.8802316105929
 20
146.1469218362507
 30
0.0
 10
262.0481946141196
 20
147.7111504645918
 30
0.0
 10
256.0484134782205
 20
149.2002177115985
 30
0.0
 10
249.8896184146218
 20
150.612143266914
 30
0.0
 10
243.5809823576091
 20
151.945091829258
 30
0.0
 10
237.1318287936346
 20
153.1970931553768
 30
0.0
 10
230.5528937985271
 20
154.367116375166
 30
0.0
 10
223.8519121175151
 20
155.4510908508205
 30
0.0
 10
217.195559013105
 20
156.4353155990571
 30
0.0
 10
212.7233766688643
 20
157.013522491405
 30
0.0
 10
210.5628363546921
 20
157.2928579935583
 30
0.0
  0
SPLINE
  5
226
330
220
100
AcDbEntity
  8
0
  6
Continuous
 62
     7
370
    25
100
AcDbSpline
210
0.0
220
0.0
230
1.0
 70
     8
 71
     3
 72
    19
 73
    15
 74
     0
 42
0.000000001
 43
0.00000001
 40
0.0
 40
0.0
 40
0.0
 40
0.0
 40
0.1132831095041094
 40
0.160046320577701
 40
0.2375410489008489
 40
0.3180811453315702
 40
0.4044960421458249
 40
0.4946490572257581
 40
0.5876704106683593
 40
0.6828651848083068
 40
0.7797381969637596
 40
0.877921535233037
 40
0.9771364382662295
 40
1.0
 40
1.0
 40
1.0
 40
1.0
 10
140.3121520086217
 20
32.34441954727072
 30
0.0
 10
137.7328983615664
 20
32.35401324316523
 30
0.0
 10
134.0889300960869
 20
32.36756721193758
 30
0.0
 10
128.6875083123807
 20
32.45878640809179
 30
0.0
 10
124.0364867558011
 20
32.56965780680451
 30
0.0
 10
118.498753879513
 20
32.75580931933469
 30
0.0
 10
112.6945683853989
 20
33.00976097230564
 30
0.0
 10
106.6373461177375
 20
33.34072123351768
 30
0.0
 10
100.4202427732885
 20
33.75111375209421
 30
0.0
 10
94.1003739884376
 20
34.24374739899044
 30
0.0
 10
87.72055607013289
 20
34.81775224897722
 30
0.0
 10
81.32574580222736
 20
35.48149569505123
 30
0.0
 10
76.57503921883645
 20
36.01739069691465
 30
0.0
 10
73.98930136807037
 20
36.35583590101084
 30
0.0
 10
73.50502941157758
 20
36.41922187848135
 30
0.0
  0
SPLINE
  5
227
330
220
100
AcDbEntity
  8
0
  6
Continuous
 62
     7
370
    25
100
AcDbSpline
210
0.0
220
0.0
230
1.0
 70
     8
 71
     3
 72
    47
 73
    43
 74
     0
 42
0.000000001
 43
0.00000001
 40
0.0
 40
0.0
 40
0.0
 40
0.0
 40
0.0103835901166456
 40
0.0371610178213471
 40
0.0636822022187176
 40
0.0900197708875362
 40
0.1162378552427744
 40
0.1423867380117281
 40
0.1685030490896086
 40
0.19461201936667
 40
0.2207270087985717
 40
0.2468586376000182
 40
0.2730138231696254
 40
0.2991958761554719
 40
0.3254057903979937
 40
0.3516430559657146
 40
0.3779062174992317
 40
0.404193246861333
 40
0.430501783356649
 40
0.4568292803377361
 40
0.4831730853501134
 40
0.5095304718963782
 40
0.5358986338321454
 40
0.5622746476290047
 40
0.5886554024658484
 40
0.6150374924042209
 40
0.6414170574555097
 40
0.6677895490059247
 40
0.6941493758459761
 40
0.7204893519343909
 40
0.7467997987052356
 40
0.7730670132187769
 40
0.7992704991113578
 40
0.8253775984630807
 40
0.8513321326910313
 40
0.8770274650847547
 40
0.902231800928111
 40
0.9263258903479268
 40
0.9478504774171079
 40
0.9635360924207547
 40
0.9811020506500667
 40
1.0
 40
1.0
 40
1.0
 40
1.0
 10
326.7508843304802
 20
86.76212583830363
 30
0.0
 10
326.6551287748657
 20
86.47106441238678
 30
0.0
 10
326.312436712803
 20
85.42940746001318
 30
0.0
 10
325.4410274231369
 20
83.63558702050288
 30
0.0
 10
324.1436864333367
 20
81.38901657080537
 30
0.0
 10
322.5678851934915
 20
79.15681136012032
 30
0.0
 10
320.7358678998653
 20
76.9396935182334
 30
0.0
 10
318.6421171817565
 20
74.73881334234751
 30
0.0
 10
316.2888255396982
 20
72.55662830635946
 30
0.0
 10
313.6769790068626
 20
70.39639333242965
 30
0.0
 10
310.8088709004806
 20
68.26185156897722
 30
0.0
 10
307.6874139231577
 20
66.15696937385135
 30
0.0
 10
304.3161348890912
 20
64.08571824215635
 30
0.0
 10
300.6992046697453
 20
62.05207488816649
 30
0.0
 10
296.841445004556
 20
60.05997689206804
 30
0.0
 10
292.7482620739016
 20
58.11326726214884
 30
0.0
 10
288.4255951670205
 20
56.21566326152144
 30
0.0
 10
283.8798714514321
 20
54.37073877270701
 30
0.0
 10
279.1179686536601
 20
52.58191534368677
 30
0.0
 10
274.1471848348586
 20
50.85245852631385
 30
0.0
 10
268.9752147667881
 20
49.18547726876571
 30
0.0
 10
263.6101324241752
 20
47.58392492025271
 30
0.0
 10
258.0603795063979
 20
46.05060095491903
 30
0.0
 10
252.3347604452852
 20
44.58815288755178
 30
0.0
 10
246.4424451617791
 20
43.19907809471535
 30
0.0
 10
240.3929820426845
 20
41.88572541372325
 30
0.0
 10
234.1963255403403
 20
40.65029650095187
 30
0.0
 10
227.8628860727109
 20
39.49484701928633
 30
0.0
 10
221.4036157707252
 20
38.42128781657761
 30
0.0
 10
214.830154731938
 20
37.43138641669955
 30
0.0
 10
208.1550847256708
 20
36.52676939367287
 30
0.0
 10
201.3923850779561
 20
35.7089270202469
 30
0.0
 10
194.5582961392192
 20
34.97922261328095
 30
0.0
 10
187.6730788673673
 20
34.33891573188188
 30
0.0
 10
180.7649772700622
 20
33.78921407588857
 30
0.0
 10
173.8805029251748
 20
33.33145198392688
 30
0.0
 10
167.117583211381
 20
32.96763637483542
 30
0.0
 10
160.6979499035301
 20
32.70041939521303
 30
0.0
 10
155.1212904560593
 20
32.53020663779329
 30
0.0
 10
150.1283724381305
 20
32.4237665080262
 30
0.0
 10
145.3687052501483
 20
32.35767392688226
 30
0.0
 10
142.0382228513294
 20
32.34894397272278
 30
0.0
 10
140.3121520086217
 20
32.34441954727072
 30
0.0
  0
SPLINE
  5
228
330
220
100
AcDbEntity
  8
0
  6
Continuous
 62
     7
370
    25
100
AcDbSpline
210
0.0
220
0.0
230
1.0
 70
     8
 71
     3
 72
    19
 73
    15
 74
     0
 42
0.000000001
 43
0.00000001
 40
0.0
 40
0.0
 40
0.0
 40
0.0
 40
0.0066216038506667
 40
0.1098265639614654
 40
0.2127579924946097
 40
0.3152905602394672
 40
0.4172059584321079
 40
0.5180864926454283
 40
0.6170194842921876
 40
0.7115566564243111
 40
0.7958392826072598
 40
0.8574376824139518
 40
0.9265038084752325
 40
1.0
 40
1.0
 40
1.0
 40
1.0
 10
70.06150433591075
 20
-79.51111689255204
 30
0.0
 10
70.20881460019679
 20
-79.53065380802845
 30
0.0
 10
72.65211693716154
 20
-79.85469498378649
 30
0.0
 10
77.47698114816434
 20
-80.40224452779151
 30
0.0
 10
84.52208171657007
 20
-81.1450352610464
 30
0.0
 10
91.62488240128069
 20
-81.7878046967583
 30
0.0
 10
98.7430659090604
 20
-82.34150307078876
 30
0.0
 10
105.8330698406353
 20
-82.8017052245812
 30
0.0
 10
112.7932927238364
 20
-83.16732362067133
 30
0.0
 10
119.3929251441537
 20
-83.43545048867087
 30
0.0
 10
125.1246446613474
 20
-83.60617555997555
 30
0.0
 10
130.2589090752394
 20
-83.71293270314897
 30
0.0
 10
135.1414979547963
 20
-83.7789006845679
 30
0.0
 10
138.5532609468287
 20
-83.78757796222814
 30
0.0
 10
140.3121520096663
 20
-83.79205142247788
 30
0.0
  0
SPLINE
  5
229
330
220
100
AcDbEntity
  8
0
  6
Continuous
 62
     7
370
    25
100
AcDbSpline
210
0.0
220
0.0
230
1.0
 70
     8
 71
     3
 72
    51
 73
    47
 74
     0
 42
0.000000001
 43
0.00000001
 40
0.0
 40
0.0
 40
0.0
 40
0.0
 40
0.0265040723259769
 40
0.0374421660791957
 40
0.0555697186736821
 40
0.0744107288254081
 40
0.0946277864380661
 40
0.1157218966886152
 40
0.137490314194433
 40
0.1597711943695714
 40
0.1824494081985414
 40
0.2054396097482757
 40
0.228677330688506
 40
0.25211288631142
 40
0.2757072808491626
 40
0.2994293904660366
 40
0.3232539892188663
 40
0.3471603409638356
 40
0.3711311786983599
 40
0.3951519542965291
 40
0.4192102806472268
 40
0.4432955134569562
 40
0.4673984366220991
 40
0.4915110262596247
 40
0.5156262761578444
 40
0.5397380727856571
 40
0.5638411118470126
 40
0.5879308511693148
 40
0.6120034967662273
 40
0.6360560203771636
 40
0.6600862077228167
 40
0.6840927371217583
 40
0.708075287955219
 40
0.7320346777961433
 40
0.7559730262024796
 40
0.7798939434086553
 40
0.8038024025239872
 40
0.8277023370207878
 40
0.8516018546741003
 40
0.8755115674291921
 40
0.899445986589454
 40
0.923425877387285
 40
0.9474821229624897
 40
0.971661096189818
 40
0.9960305920867866
 40
1.0
 40
1.0
 40
1.0
 40
1.0
 10
140.3121520096663
 20
-83.79205142247788
 30
0.0
 10
142.9654224226814
 20
-83.78239237248823
 30
0.0
 10
146.7136838307882
 20
-83.7687470824577
 30
0.0
 10
152.2698820794176
 20
-83.67691539127979
 30
0.0
 10
157.0541784652374
 20
-83.56530887972387
 30
0.0
 10
162.7517217597817
 20
-83.37790557033227
 30
0.0
 10
168.7250617023963
 20
-83.12219284202672
 30
0.0
 10
174.9611783104549
 20
-82.78888253904216
 30
0.0
 10
181.3648061322101
 20
-82.3753231206726
 30
0.0
 10
187.8785639070652
 20
-81.87913289492933
 30
0.0
 10
194.4566711785946
 20
-81.29900442046868
 30
0.0
 10
201.0630075593523
 20
-80.63428211805369
 30
0.0
 10
207.6680059731798
 20
-79.88484243009086
 30
0.0
 10
214.2468042210879
 20
-79.05098344502372
 30
0.0
 10
220.7779951946353
 20
-78.1333521033153
 30
0.0
 10
227.2427805904073
 20
-77.13288980778705
 30
0.0
 10
233.6243873183237
 20
-76.05079165935129
 30
0.0
 10
239.9076589531771
 20
-74.88847448079926
 30
0.0
 10
246.0787659353233
 20
-73.64755085992238
 30
0.0
 10
252.1249977592235
 20
-72.32980718785916
 30
0.0
 10
258.0346127166004
 20
-70.93718428480646
 30
0.0
 10
263.7967286509302
 20
-69.47175955505293
 30
0.0
 10
269.4012433114861
 20
-67.9357298417945
 30
0.0
 10
274.8387762750243
 20
-66.33139428547838
 30
0.0
 10
280.1006266486491
 20
-64.6611365606705
 30
0.0
 10
285.1787422582033
 20
-62.92740589244143
 30
0.0
 10
290.0656969975797
 20
-61.13269624751668
 30
0.0
 10
294.7546736091046
 20
-59.27952306943811
 30
0.0
 10
299.2394494684804
 20
-57.37039689431164
 30
0.0
 10
303.5143830030967
 20
-55.40779316355261
 30
0.0
 10
307.574398205626
 20
-53.3941175727176
 30
0.0
 10
311.4149642965068
 20
-51.33166640672481
 30
0.0
 10
315.0320670358686
 20
-49.22258158639124
 30
0.0
 10
318.42216717972
 20
-47.06880067130994
 30
0.0
 10
321.5821414699637
 20
-44.87200300992922
 30
0.0
 10
324.5091838394197
 20
-42.6335652053622
 30
0.0
 10
327.2005905873684
 20
-40.35460591930286
 30
0.0
 10
329.6537160456528
 20
-38.03589294380137
 30
0.0
 10
331.8658866917422
 20
-35.67782711037091
 30
0.0
 10
333.8340012564623
 20
-33.28032987025757
 30
0.0
 10
335.5552676914698
 20
-30.84296441216469
 30
0.0
 10
337.0231146551931
 20
-28.36472378949891
 30
0.0
 10
338.241381425959
 20
-25.8447193836854
 30
0.0
 10
339.1697001836419
 20
-23.27934585314727
 30
0.0
 10
339.7133336591867
 20
-21.40914280748306
 30
0.0
 10
339.8574708751381
 20
-20.39160358622431
 30
0.0
 10
339.8776600613331
 20
-20.24907766976954
 30
0.0
  0
SPLINE
  5
22C
330
220
100
AcDbEntity
  8
0
  6
Continuous
 62
     7
370
    25
100
AcDbSpline
210
0.0
220
0.0
230
1.0
 70
     8
 71
     3
 72
    19
 73
    15
 74
     0
 42
0.000000001
 43
0.00000001
 40
0.0
 40
0.0
 40
0.0
 40
0.0
 40
0.0066221494889786
 40
0.109827052911803
 40
0.2127584249072229
 40
0.3152909363334473
 40
0.417206278546455
 40
0.5180867573485424
 40
0.6170196946538551
 40
0.7115568148590032
 40
0.7958393947473592
 40
0.8574377607190701
 40
0.9265038488425532
 40
1.0
 40
1.0
 40
1.0
 40
1.0
 10
-70.06146766255137
 20
192.648197036363
 30
0.0
 10
-70.20879014209994
 20
192.6677355763406
 30
0.0
 10
-72.65210462532119
 20
192.9917784369726
 30
0.0
 10
-77.47698108425716
 20
193.5393295768966
 30
0.0
 10
-84.52208173357727
 20
194.2821202393598
 30
0.0
 10
-91.62488239673299
 20
194.9248896939311
 30
0.0
 10
-98.74306591023692
 20
195.4785880629541
 30
0.0
 10
-105.8330698403027
 20
195.9387902180681
 30
0.0
 10
-112.793292723897
 20
196.3044086138151
 30
0.0
 10
-119.3929251441124
 20
196.5725354819004
 30
0.0
 10
-125.1246446613118
 20
196.7432605531858
 30
0.0
 10
-130.2589090751487
 20
196.850017696362
 30
0.0
 10
-135.1414979547167
 20
196.9159856777812
 30
0.0
 10
-138.5532609467703
 20
196.9246629554418
 30
0.0
 10
-140.3121520096642
 20
196.9291364156919
 30
0.0
  0
SPLINE
  5
22D
330
220
100
AcDbEntity
  8
0
  6
Continuous
 62
     7
370
    25
100
AcDbSpline
210
0.0
220
0.0
230
1.0
 70
     8
 71
     3
 72
    51
 73
    47
 74
     0
 42
0.000000001
 43
0.00000001
 40
0.0
 40
0.0
 40
0.0
 40
0.0
 40
0.0265040723259764
 40
0.037442166079195
 40
0.0555697186736811
 40
0.074410728825424
 40
0.094627786438078
 40
0.1157218966886231
 40
0.1374903141944488
 40
0.1597711943695986
 40
0.1824494081985575
 40
0.205439609748295
 40
0.2286773306885226
 40
0.2521128863114384
 40
0.2757072808491863
 40
0.2994293904660498
 40
0.3232539892188743
 40
0.3471603409638538
 40
0.37113117869837
 40
0.3951519542965402
 40
0.4192102806472424
 40
0.4432955134569633
 40
0.4673984366221083
 40
0.4915110262596404
 40
0.5156262761578563
 40
0.5397380727856762
 40
0.5638411118470265
 40
0.5879308511693249
 40
0.6120034967662343
 40
0.636056020377168
 40
0.6600862077228236
 40
0.6840927371217722
 40
0.7080752879552294
 40
0.7320346777961612
 40
0.7559730262024936
 40
0.779893943408656
 40
0.8038024025239859
 40
0.8277023370207847
 40
0.8516018546740951
 40
0.8755115674291856
 40
0.8994459865894507
 40
0.9234258773872704
 40
0.9474821229624795
 40
0.971661096189802
 40
0.9960305920867747
 40
1.0
 40
1.0
 40
1.0
 40
1.0
 10
-140.3121520096642
 20
196.9291364156919
 30
0.0
 10
-142.9654224226794
 20
196.9194773657022
 30
0.0
 10
-146.713683830786
 20
196.9058320756718
 30
0.0
 10
-152.2698820794155
 20
196.8140003844938
 30
0.0
 10
-157.054178465237
 20
196.7023938729379
 30
0.0
 10
-162.7517217597825
 20
196.5149905635461
 30
0.0
 10
-168.7250617023982
 20
196.2592778352406
 30
0.0
 10
-174.9611783104567
 20
195.9259675322559
 30
0.0
 10
-181.3648061322136
 20
195.5124081138864
 30
0.0
 10
-187.8785639070696
 20
195.0162178881428
 30
0.0
 10
-194.4566711785991
 20
194.436089413682
 30
0.0
 10
-201.063007559356
 20
193.7713671112671
 30
0.0
 10
-207.6680059731836
 20
193.0219274233041
 30
0.0
 10
-214.2468042210924
 20
192.1880684382369
 30
0.0
 10
-220.7779951946393
 20
191.2704370965284
 30
0.0
 10
-227.2427805904104
 20
190.2699748010002
 30
0.0
 10
-233.6243873183264
 20
189.1878766525645
 30
0.0
 10
-239.9076589531794
 20
188.0255594740124
 30
0.0
 10
-246.0787659353257
 20
186.7846358531354
 30
0.0
 10
-252.124997759226
 20
185.4668921810723
 30
0.0
 10
-258.0346127166023
 20
184.0742692780193
 30
0.0
 10
-263.7967286509321
 20
182.6088445482659
 30
0.0
 10
-269.401243311488
 20
181.0728148350074
 30
0.0
 10
-274.8387762750265
 20
179.4684792786911
 30
0.0
 10
-280.1006266486518
 20
177.7982215538829
 30
0.0
 10
-285.1787422582059
 20
176.0644908856537
 30
0.0
 10
-290.0656969975821
 20
174.269781240729
 30
0.0
 10
-294.7546736091061
 20
172.4166080626506
 30
0.0
 10
-299.2394494684811
 20
170.5074818875243
 30
0.0
 10
-303.5143830030973
 20
168.5448781567653
 30
0.0
 10
-307.5743982056269
 20
166.5312025659301
 30
0.0
 10
-311.4149642965078
 20
164.468751399937
 30
0.0
 10
-315.0320670358701
 20
162.359666579603
 30
0.0
 10
-318.4221671797214
 20
160.2058856645218
 30
0.0
 10
-321.5821414699641
 20
158.0090880031412
 30
0.0
 10
-324.5091838394195
 20
155.7706501985747
 30
0.0
 10
-327.2005905873673
 20
153.4916909125158
 30
0.0
 10
-329.6537160456514
 20
151.1729779370145
 30
0.0
 10
-331.8658866917408
 20
148.8149121035842
 30
0.0
 10
-333.8340012564606
 20
146.4174148634707
 30
0.0
 10
-335.5552676914683
 20
143.9800494053782
 30
0.0
 10
-337.023114655191
 20
141.5018087827125
 30
0.0
 10
-338.2413814259569
 20
138.9818043768994
 30
0.0
 10
-339.1697001836395
 20
136.4164308463611
 30
0.0
 10
-339.7133336591845
 20
134.5462278006965
 30
0.0
 10
-339.8574708751361
 20
133.5286885794372
 30
0.0
 10
-339.8776600613311
 20
133.386162662982
 30
0.0
  0
SPLINE
  5
22F
330
220
100
AcDbEntity
  8
0
  6
Continuous
 62
     7
370
    25
100
AcDbSpline
210
0.0
220
0.0
230
1.0
 70
     8
 71
     3
 72
    37
 73
    33
 74
     0
 42
0.000000001
 43
0.00000001
 40
0.0
 40
0.0
 40
0.0
 40
0.0
 40
0.0255571444186886
 40
0.058900348872769
 40
0.0924120891115236
 40
0.126055327436234
 40
0.1597992817961704
 40
0.1936179681722122
 40
0.2274891262313815
 40
0.2613934183526007
 40
0.2953138282465672
 40
0.3292352094722149
 40
0.3631439507283323
 40
0.3970277367269446
 40
0.4308753926036924
 40
0.4646768074776599
 40
0.4984229399090256
 40
0.532105915427084
 40
0.5657192347694048
 40
0.599258121755984
 40
0.6327200526235329
 40
0.6661055249578226
 40
0.6994191446941372
 40
0.7326711340019516
 40
0.7658793896628344
 40
0.7990713558947705
 40
0.8322843330923674
 40
0.8655767432380462
 40
0.8990302710022657
 40
0.9327562720555055
 40
0.9669017561953729
 40
1.0
 40
1.0
 40
1.0
 40
1.0
 10
-207.1192746056605
 20
71.7745609212852
 30
0.0
 10
-208.7600385561465
 20
71.98322126214765
 30
0.0
 10
-212.5414300730648
 20
72.46411093711932
 30
0.0
 10
-218.3637027469369
 20
73.30960349634698
 30
0.0
 10
-224.6012619389872
 20
74.29613261192323
 30
0.0
 10
-230.7465225610659
 20
75.36471864638244
 30
0.0
 10
-236.7877829930817
 20
76.51049636686952
 30
0.0
 10
-242.7100038096137
 20
77.7323948625821
 30
0.0
 10
-248.5005038805892
 20
79.02804888063541
 30
0.0
 10
-254.1472284289281
 20
80.39518870590423
 30
0.0
 10
-259.6390721163605
 20
81.83128282571839
 30
0.0
 10
-264.9656897833606
 20
83.3336481607792
 30
0.0
 10
-270.117474526093
 20
84.89943326928302
 30
0.0
 10
-275.0855132754978
 20
86.52563489634255
 30
0.0
 10
-279.8615656828665
 20
88.20910552907216
 30
0.0
 10
-284.4380504048244
 20
89.9465640892079
 30
0.0
 10
-288.8080404752288
 20
91.73460748083055
 30
0.0
 10
-292.9652654516987
 20
93.56972488736099
 30
0.0
 10
-296.9041195504354
 20
95.44831607604526
 30
0.0
 10
-300.6196747148098
 20
97.36671584492376
 30
0.0
 10
-304.1076976441618
 20
99.3212275310012
 30
0.0
 10
-307.3646686716287
 20
101.308169693303
 30
0.0
 10
-310.3878014578158
 20
103.3239417793664
 30
0.0
 10
-313.175052413226
 20
105.3651164885449
 30
0.0
 10
-315.7251126411196
 20
107.4285518043868
 30
0.0
 10
-318.0372400426544
 20
109.5114814935748
 30
0.0
 10
-320.1115057915238
 20
111.6118183545622
 30
0.0
 10
-321.9478995464419
 20
113.7284647942966
 30
0.0
 10
-323.5489727694881
 20
115.861916052431
 30
0.0
 10
-324.9084759591059
 20
118.0143893030432
 30
0.0
 10
-326.033043865616
 20
120.156681926489
 30
0.0
 10
-326.5696685570801
 20
121.5775503739666
 30
0.0
 10
-326.8338022601419
 20
122.2769204375617
 30
0.0
  0
SPLINE
  5
230
330
220
100
AcDbEntity
  8
0
  6
Continuous
 62
     7
370
    25
100
AcDbSpline
210
0.0
220
0.0
230
1.0
 70
     8
 71
     3
 72
    38
 73
    34
 74
     0
 42
0.000000001
 43
0.00000001
 40
0.0
 40
0.0
 40
0.0
 40
0.0
 40
0.0198335174618698
 40
0.0553073379933322
 40
0.0874531734281707
 40
0.1197824327544357
 40
0.1522667255198361
 40
0.1848708506693244
 40
0.21755901893946
 40
0.2503007486516504
 40
0.2830728667141766
 40
0.3158591279129117
 40
0.3486449925180801
 40
0.381424983623062
 40
0.4141966294691977
 40
0.4469587026142219
 40
0.4797107642007918
 40
0.5124527942622001
 40
0.545184953399142
 40
0.5779074298009733
 40
0.6106203396895048
 40
0.6433236591883299
 40
0.6760171722819959
 40
0.7087004236219854
 40
0.7413726670137448
 40
0.7740328007772405
 40
0.8066792797881958
 40
0.8393099904329803
 40
0.8719220678395203
 40
0.9045116222775206
 40
0.9370733188706075
 40
0.9695997119634258
 40
1.0
 40
1.0
 40
1.0
 40
1.0
 10
-339.8603187176224
 20
15.12541604872783
 30
0.0
 10
-339.7650988933207
 20
14.58424863525368
 30
0.0
 10
-339.4995708539077
 20
13.0751603403744
 30
0.0
 10
-338.7150498287987
 20
10.7142489998218
 30
0.0
 10
-337.5697766020887
 20
8.044491878359365
 30
0.0
 10
-336.1694280081716
 20
5.489162052660375
 30
0.0
 10
-334.4935873355829
 20
2.958675571339754
 30
0.0
 10
-332.5411109942758
 20
0.4583070496330249
 30
0.0
 10
-330.3175275374171
 20
-2.00765363737046
 30
0.0
 10
-327.8271784875471
 20
-4.435476290291083
 30
0.0
 10
-325.0750065779224
 20
-6.822038003887296
 30
0.0
 10
-322.0660000822479
 20
-9.164547936792056
 30
0.0
 10
-318.8052075119747
 20
-11.46052233533297
 30
0.0
 10
-315.2977083179138
 20
-13.7076575831802
 30
0.0
 10
-311.5485223193652
 20
-15.90381236557138
 30
0.0
 10
-307.5628383723364
 20
-18.04683245931917
 30
0.0
 10
-303.3460956437891
 20
-20.13452021785565
 30
0.0
 10
-298.9040166436552
 20
-22.16464035515349
 30
0.0
 10
-294.2426320694804
 20
-24.13493120053936
 30
0.0
 10
-289.3682962079224
 20
-26.04311945901773
 30
0.0
 10
-284.287695654369
 20
-27.88693591411705
 30
0.0
 10
-279.0078536563591
 20
-29.66413074272885
 30
0.0
 10
-273.5361318204491
 20
-31.37248759965954
 30
0.0
 10
-267.8802316105773
 20
-33.00983684304043
 30
0.0
 10
-262.0481946141043
 20
-34.5740654713811
 30
0.0
 10
-256.0484134782062
 20
-36.06313271838736
 30
0.0
 10
-249.889618414608
 20
-37.47505827370251
 30
0.0
 10
-243.5809823575958
 20
-38.80800683604624
 30
0.0
 10
-237.1318287936213
 20
-40.06000816216488
 30
0.0
 10
-230.5528937985142
 20
-41.23003138195384
 30
0.0
 10
-223.8519121175024
 20
-42.31400585760809
 30
0.0
 10
-217.1955590130957
 20
-43.29823060584409
 30
0.0
 10
-212.7233766688583
 20
-43.87643749819146
 30
0.0
 10
-210.5628363546894
 20
-44.15577300034433
 30
0.0
  0
SPLINE
  5
232
330
220
100
AcDbEntity
  8
0
  6
Continuous
 62
     7
370
    25
100
AcDbSpline
210
0.0
220
0.0
230
1.0
 70
     8
 71
     3
 72
    14
 73
    10
 74
     0
 42
0.000000001
 43
0.00000001
 40
0.0
 40
0.0
 40
0.0
 40
0.0
 40
0.25
 40
0.25
 40
0.5
 40
0.5
 40
0.75
 40
0.75
 40
1.0
 40
1.0
 40
1.0
 40
1.0
 10
70.3085806872128
 20
33.72206860270712
 30
0.0
 10
119.4284778129321
 20
27.53354326200542
 30
0.0
 10
173.9159848681967
 20
28.10279630969517
 30
0.0
 10
269.637698975737
 20
42.5062414021303
 30
0.0
 10
306.9586166334797
 20
55.75159266554957
 30
0.0
 10
344.0897686865245
 20
88.49819074157098
 30
0.0
 10
342.382009543049
 20
106.6606930890044
 30
0.0
 10
299.1716742554624
 20
138.5679311172594
 30
0.0
 10
259.43562045575
 20
151.0082370002136
 30
0.0
 10
210.3157233300307
 20
157.1967623409153
 30
0.0
  0
SPLINE
  5
238
330
220
100
AcDbEntity
  8
0
  6
Continuous
 62
     7
370
    25
100
AcDbSpline
210
0.0
220
0.0
230
1.0
 70
     8
 71
     3
 72
    64
 73
    60
 74
     0
 42
0.000000001
 43
0.00000001
 40
0.0
 40
0.0
 40
0.0
 40
0.0
 40
0.0023885885243194
 40
0.0047765177248717
 40
0.0071639217279585
 40
0.0095509347484142
 40
0.0119376910670317
 40
0.0143243250079329
 40
0.0167109709159024
 40
0.0190977631337041
 40
0.0214848359793994
 40
0.0238723237236857
 40
0.026260360567276
 40
0.0286490806183362
 40
0.0434544145213859
 40
0.0582606233425627
 40
0.0735060597266646
 40
0.088752364591069
 40
0.1043850313807701
 40
0.1200185552691841
 40
0.1359754356819927
 40
0.1519331905748459
 40
0.1843415545732702
 40
0.2170946803745513
 40
0.2500229487749599
 40
0.2829512171753665
 40
0.3157043429766435
 40
0.3481127069750641
 40
0.380017308587126
 40
0.4112740653618535
 40
0.4417570570548415
 40
0.4713605868992761
 40
0.5000000644704581
 40
0.5286395420416401
 40
0.5582430718860776
 40
0.5887260635790628
 40
0.6199828203537959
 40
0.6518874219658497
 40
0.6842957859642755
 40
0.7170489117655453
 40
0.7499771801659563
 40
0.7829054485663609
 40
0.8156585743676456
 40
0.8480669383660698
 40
0.864023818469531
 40
0.8799815736927594
 40
0.8956142400704283
 40
0.9112477643923403
 40
0.9264932006656778
 40
0.941739505594975
 40
0.956544839461876
 40
0.9713510483485027
 40
0.9754453418533033
 40
0.9795379790893132
 40
0.9836296363079846
 40
0.9877209902467251
 40
0.9918127177934214
 40
0.9959054956505926
 40
1.0
 40
1.0
 40
1.0
 40
1.0
 10
207.3770347718995
 20
154.6050826390231
 30
0.0
 10
207.8203620490219
 20
154.5488633420705
 30
0.0
 10
208.7068942313272
 20
154.4364402664174
 30
0.0
 10
210.0316815943195
 20
154.2636217454569
 30
0.0
 10
211.3525291587762
 20
154.0877742201514
 30
0.0
 10
212.6690941878337
 20
153.9085954361283
 30
0.0
 10
213.9814684751542
 20
153.7261663591772
 30
0.0
 10
215.2896274081148
 20
153.5404653026817
 30
0.0
 10
216.5935775869181
 20
153.3514980738042
 30
0.0
 10
217.8933171452827
 20
153.1592631380473
 30
0.0
 10
219.1888468746007
 20
152.963760837631
 30
0.0
 10
220.4801654024911
 20
152.7649913501129
 30
0.0
 10
221.7672773566833
 20
152.5629536352272
 30
0.0
 10
225.2728036463195
 20
152.0019605716694
 30
0.0
 10
230.927529688752
 20
151.0336639551222
 30
0.0
 10
238.6553764378103
 20
149.5548854343387
 30
0.0
 10
246.2398857394356
 20
147.9406411340738
 30
0.0
 10
253.7173644304276
 20
146.1754163727201
 30
0.0
 10
260.9907098042381
 20
144.2757444968167
 30
0.0
 10
268.0816658783891
 20
142.2283804976562
 30
0.0
 10
274.9068103763029
 20
140.0515194075205
 30
0.0
 10
283.6841858507394
 20
136.9563041381646
 30
0.0
 10
293.8491174961557
 20
132.7777993880623
 30
0.0
 10
304.5248817904074
 20
127.3336026253327
 30
0.0
 10
313.5098444415356
 20
121.5208163353627
 30
0.0
 10
320.6455793843888
 20
115.4298661667293
 30
0.0
 10
325.8336580963625
 20
109.1596486569765
 30
0.0
 10
329.038388416948
 20
102.8127109665146
 30
0.0
 10
330.286664184095
 20
96.48973771657896
 30
0.0
 10
329.6625954331868
 20
90.28465269895996
 30
0.0
 10
327.2985725234307
 20
84.28061193775368
 30
0.0
 10
323.3638515246454
 20
78.5471976394529
 30
0.0
 10
317.9887182390768
 20
73.07427224254465
 30
0.0
 10
311.1600685452491
 20
67.78447269996404
 30
0.0
 10
302.7342179968675
 20
62.6168875391894
 30
0.0
 10
292.5933361422202
 20
57.59263890841977
 30
0.0
 10
280.7485538395182
 20
52.80123091821406
 30
0.0
 10
267.2655859390146
 20
48.33421991726073
 30
0.0
 10
252.2677241612173
 20
44.2805932687941
 30
0.0
 10
235.9345879769317
 20
40.72179397383544
 30
0.0
 10
218.4964322279297
 20
37.72686301661318
 30
0.0
 10
200.2233200080765
 20
35.34827136731631
 30
0.0
 10
181.4135038150234
 20
33.61890853739966
 30
0.0
 10
165.4985131740091
 20
32.72619648520423
 30
0.0
 10
152.7736065103977
 20
32.34000836985172
 30
0.0
 10
143.335343436158
 20
32.21216366738045
 30
0.0
 10
133.9543410024741
 20
32.24004562102951
 30
0.0
 10
124.7299587662739
 20
32.41890627172173
 30
0.0
 10
115.618919013488
 20
32.74361896208487
 30
0.0
 10
106.7275447949245
 20
33.20514976790358
 30
0.0
 10
97.99710913930952
 20
33.79990266157959
 30
0.0
 10
91.5062618128644
 20
34.34817244885469
 30
0.0
 10
87.11531237914232
 20
34.76557939963586
 30
0.0
 10
84.77923954382139
 20
34.99850453623705
 30
0.0
 10
82.45292848541007
 20
35.2413779090473
 30
0.0
 10
80.13629339284138
 20
35.49413681925409
 30
0.0
 10
77.82960783229072
 20
35.75701880957529
 30
0.0
 10
75.53186418420354
 20
36.02913601668141
 30
0.0
 10
74.00890794270767
 20
36.21886420565587
 30
0.0
 10
73.24726924534464
 20
36.31374830459863
 30
0.0
  0
SPLINE
  5
23A
330
220
100
AcDbEntity
  8
0
  6
Continuous
 62
     7
370
    25
100
AcDbSpline
210
0.0
220
0.0
230
1.0
 70
     8
 71
     3
 72
    64
 73
    60
 74
     0
 42
0.000000001
 43
0.00000001
 40
0.0
 40
0.0
 40
0.0
 40
0.0
 40
0.0023885885205236
 40
0.0047765177179702
 40
0.0071639217186416
 40
0.009550934737372
 40
0.0119376910549544
 40
0.0143243249955101
 40
0.0167109709038234
 40
0.0190977631226577
 40
0.0214848359700738
 40
0.0238723237167683
 40
0.0262603605634532
 40
0.0286490806182937
 40
0.043454414640685
 40
0.058260623342831
 40
0.0735060602441351
 40
0.0887523645919085
 40
0.1043850309531139
 40
0.1200185552671297
 40
0.1359754349882425
 40
0.1519331905751321
 40
0.1843415545735468
 40
0.2170946803748146
 40
0.2500229487752098
 40
0.2829512171756176
 40
0.3157043429768872
 40
0.3481127069753029
 40
0.3800173085873509
 40
0.4112740653620753
 40
0.4417570570550552
 40
0.4713605868994853
 40
0.5000000644706611
 40
0.528639542041837
 40
0.5582430718862642
 40
0.588726063579247
 40
0.6199828203539657
 40
0.6518874219660218
 40
0.6842957859644324
 40
0.7170489117657093
 40
0.7499771801661126
 40
0.7829054485665118
 40
0.8156585743677761
 40
0.8480669383661906
 40
0.864023818650811
 40
0.8799815736930564
 40
0.8956142403716404
 40
0.9112477643927528
 40
0.9264932009466044
 40
0.9417395055952226
 40
0.9565448395816459
 40
0.971351048348545
 40
0.9754453418594061
 40
0.9795379790994598
 40
0.9836296363201542
 40
0.9877209902588933
 40
0.9918127178035616
 40
0.995905495656677
 40
1.0
 40
1.0
 40
1.0
 40
1.0
 10
-207.3770347718967
 20
71.66908734740291
 30
0.0
 10
-207.820362048314
 20
71.72530664426677
 30
0.0
 10
-208.7068942293371
 20
71.83772971975874
 30
0.0
 10
-210.0316815905984
 20
72.01054824050168
 30
0.0
 10
-211.3525291537086
 20
72.1863957656381
 30
0.0
 10
-212.6690941818038
 20
72.36557454954065
 30
0.0
 10
-213.9814684685468
 20
72.54800362641939
 30
0.0
 10
-215.2896274013144
 20
72.73370468289112
 30
0.0
 10
-216.593577580309
 20
72.9226719117933
 30
0.0
 10
-217.8933171392494
 20
73.11490684762332
 30
0.0
 10
-219.1888468695283
 20
73.31040914816082
 30
0.0
 10
-220.4801653987608
 20
73.50917863585047
 30
0.0
 10
-221.7672773546924
 20
73.71121635094843
 30
0.0
 10
-225.2728036670487
 20
74.27220941802601
 30
0.0
 10
-230.9275297133041
 20
75.24050603282372
 30
0.0
 10
-238.6553765447115
 20
76.71928457458581
 30
0.0
 10
-246.2398858295914
 20
78.33352886890438
 30
0.0
 10
-253.7173644489887
 20
80.09875361548417
 30
0.0
 10
-260.9907097028494
 20
81.9984254861657
 30
0.0
 10
-268.0816657154655
 20
84.04578943809862
 30
0.0
 10
-274.9068103096633
 20
86.22265053632006
 30
0.0
 10
-283.6841857456081
 20
89.31786581829397
 30
0.0
 10
-293.8491175024234
 20
93.49637059636734
 30
0.0
 10
-304.5248817886994
 20
98.94056736163411
 30
0.0
 10
-313.5098444419856
 20
104.7533536509173
 30
0.0
 10
-320.6455793842562
 20
110.8443038197353
 30
0.0
 10
-325.8336580964017
 20
117.1145213294383
 30
0.0
 10
-329.038388416932
 20
123.4614590199137
 30
0.0
 10
-330.2866641841023
 20
129.7844322698455
 30
0.0
 10
-329.6625954331782
 20
135.989517287465
 30
0.0
 10
-327.2985725234343
 20
141.9935580486719
 30
0.0
 10
-323.363851524639
 20
147.7269723469719
 30
0.0
 10
-317.9887182390764
 20
153.199897743881
 30
0.0
 10
-311.1600685452435
 20
158.4896972864605
 30
0.0
 10
-302.7342179968692
 20
163.6572824472367
 30
0.0
 10
-292.5933361422158
 20
168.6815310780043
 30
0.0
 10
-280.7485538395176
 20
173.4729390682116
 30
0.0
 10
-267.2655859390138
 20
177.939950069164
 30
0.0
 10
-252.2677241612162
 20
181.9935767176335
 30
0.0
 10
-235.9345879769269
 20
185.5523760125855
 30
0.0
 10
-218.496432227923
 20
188.5473069698296
 30
0.0
 10
-200.2233200080581
 20
190.9258986190391
 30
0.0
 10
-181.4135038150702
 20
192.655261449287
 30
0.0
 10
-165.4985131383233
 20
193.5479735024589
 30
0.0
 10
-152.7736064746699
 20
193.9341616186527
 30
0.0
 10
-143.3353433404582
 20
194.0620063192333
 30
0.0
 10
-133.9543409425842
 20
194.0341243655007
 30
0.0
 10
-124.7299586511521
 20
193.8552637116152
 30
0.0
 10
-115.6189189586057
 20
193.5305510207777
 30
0.0
 10
-106.7275447164502
 20
193.0690202142878
 30
0.0
 10
-97.99710911722568
 20
192.4742673214217
 30
0.0
 10
-91.5062617886578
 20
191.9259975355189
 30
0.0
 10
-87.1153123761511
 20
191.5085905863755
 30
0.0
 10
-84.77923953855114
 20
191.2756654495172
 30
0.0
 10
-82.45292847901365
 20
191.0327920765606
 30
0.0
 10
-80.13629338644202
 20
190.7800331663583
 30
0.0
 10
-77.8296078270201
 20
190.5171511761812
 30
0.0
 10
-75.53186418118986
 20
190.245033969363
 30
0.0
 10
-74.00890794157544
 20
190.0553057806272
 30
0.0
 10
-73.24726924534184
 20
189.9604216818274
 30
0.0
  0
SPLINE
  5
23D
330
220
100
AcDbEntity
  8
0
  6
Continuous
 62
     7
370
    25
100
AcDbSpline
210
0.0
220
0.0
230
1.0
 70
     8
 71
     3
 72
    14
 73
    10
 74
     0
 42
0.000000001
 43
0.00000001
 40
0.0
 40
0.0
 40
0.0
 40
0.0
 40
0.2499999999999996
 40
0.2499999999999996
 40
0.4999999999999997
 40
0.4999999999999997
 40
0.7499999999999998
 40
0.7499999999999998
 40
1.0
 40
1.0
 40
1.0
 40
1.0
 10
-70.30858068721274
 20
192.5521013837192
 30
0.0
 10
-119.4284778129317
 20
198.7406267244207
 30
0.0
 10
-173.9159848681965
 20
198.1713736767308
 30
0.0
 10
-269.6376989757353
 20
183.7679285842955
 30
0.0
 10
-306.9586166334776
 20
170.522577320876
 30
0.0
 10
-344.0897686865208
 20
137.7759792448548
 30
0.0
 10
-342.3820095430445
 20
119.6134768974214
 30
0.0
 10
-299.1716742554568
 20
87.70623886916691
 30
0.0
 10
-259.4356204557438
 20
75.26593298621287
 30
0.0
 10
-210.3157233300247
 20
69.07740764551154
 30
0.0
  0
LWPOLYLINE
  5
245
330
220
100
AcDbEntity
  8
0
  6
Continuous
 62
     7
370
    25
100
AcDbPolyline
 90
        3
 70
   128
 43
0.0
 10
-339.9305081269
 20
15.4467639826
 10
-340.1784454444
 20
17.1259678509
 10
-340.3121520086
 20
19.5632876046
  0
LWPOLYLINE
  5
249
330
220
100
AcDbEntity
  8
0
  6
Continuous
 62
    60
370
    25
100
AcDbPolyline
 90
        3
 70
   128
 43
0.0
 10
210.31572333
 20
157.1967623409
 10
210.4536730196
 20
157.2821909089
 10
210.5632740349
 20
157.2957525219
  0
LWPOLYLINE
  5
24A
330
220
100
AcDbEntity
  8
0
  6
Continuous
 62
    60
370
    25
100
AcDbPolyline
 90
       46
 70
   128
 43
0.0
 10
339.9274219361
 20
89.4406789573
 10
339.5188715215
 20
87.6419352044
 10
338.5989315625
 20
84.8665012538
 10
337.3311292139
 20
82.1063428593
 10
335.7176886317
 20
79.3663022767
 10
333.761440339
 20
76.6511864683
 10
331.4658162601
 20
73.9657586698
 10
328.8348436997
 20
71.3147300341
 10
325.8731382776
 20
68.7027513662
 10
322.5858958315
 20
66.1344049642
 10
318.9788833017
 20
63.6141965805
 10
315.0584286139
 20
61.146547517
 10
310.8314095777
 20
58.7357868686
 10
306.3052418209
 20
56.3861439287
 10
301.4878657798
 20
54.1017407695
 10
296.3877327688
 20
51.8865850102
 10
291.0137901543
 20
49.7445627868
 10
285.3754656578
 20
47.6794319343
 10
279.4826508162
 20
45.6948153937
 10
273.3456836294
 20
43.7941948569
 10
266.9753304229
 20
41.9809046582
 10
260.3827669611
 20
40.2581259247
 10
253.5795588404
 20
38.6288809958
 10
246.5776411995
 20
37.0960281206
 10
239.3892977814
 20
35.662256444
 10
232.027139383
 20
34.3300812887
 10
224.5040817317
 20
33.1018397426
 10
216.8333228271
 20
31.9796865587
 10
209.0283197868
 20
30.965590375
 10
201.1027652383
 20
30.0613302608
 10
193.0705632974
 20
29.2684925957
 10
184.9458051757
 20
28.5884682862
 10
176.7427444597
 20
28.0224503262
 10
168.4757721054
 20
27.5714317034
 10
160.1593911913
 20
27.2362036578
 10
151.8081914756
 20
27.0173542932
 10
143.4368238003
 20
26.9152675458
 10
135.0599743889
 20
26.9301225106
 10
126.6923390817
 20
27.0618931267
 10
118.3485975545
 20
27.3103482238
 10
110.043387565
 20
27.6750519272
 10
101.7912792737
 20
28.1553644227
 10
93.6067496828
 20
28.7504430789
 10
85.5041572381
 20
29.4592439258
 10
77.4977166401
 20
30.2805234857
 10
69.6014739062
 20
31.2128409552
  0
LWPOLYLINE
  5
24B
330
220
100
AcDbEntity
  8
0
  6
Continuous
 62
    60
370
    25
100
AcDbPolyline
 90
       46
 70
   128
 43
0.0
 10
339.9274219362
 20
-19.925169869
 10
339.5188715215
 20
-21.7239136224
 10
338.5989315625
 20
-24.499347573
 10
337.3311292139
 20
-27.2595059675
 10
335.7176886317
 20
-29.9995465501
 10
333.761440339
 20
-32.7146623585
 10
331.4658162601
 20
-35.400090157
 10
328.8348436997
 20
-38.0511187927
 10
325.8731382776
 20
-40.6630974606
 10
322.5858958315
 20
-43.2314438626
 10
318.9788833017
 20
-45.7516522462
 10
315.0584286139
 20
-48.2193013097
 10
310.8314095777
 20
-50.6300619581
 10
306.3052418209
 20
-52.979704898
 10
301.4878657798
 20
-55.2641080573
 10
296.3877327688
 20
-57.4792638166
 10
291.0137901543
 20
-59.6212860399
 10
285.3754656578
 20
-61.6864168925
 10
279.4826508162
 20
-63.6710334331
 10
273.3456836294
 20
-65.5716539699
 10
266.9753304229
 20
-67.3849441686
 10
260.3827669611
 20
-69.107722902
 10
253.5795588404
 20
-70.736967831
 10
246.5776411995
 20
-72.2698207061
 10
239.3892977814
 20
-73.7035923827
 10
232.027139383
 20
-75.035767538
 10
224.5040817317
 20
-76.2640090842
 10
216.8333228271
 20
-77.3861622681
 10
209.0283197868
 20
-78.4002584518
 10
201.1027652383
 20
-79.3045185659
 10
193.0705632974
 20
-80.0973562311
 10
184.9458051757
 20
-80.7773805405
 10
176.7427444597
 20
-81.3433985006
 10
168.4757721054
 20
-81.7944171234
 10
160.1593911913
 20
-82.129645169
 10
151.8081914756
 20
-82.3484945336
 10
143.4368238003
 20
-82.4505812809
 10
135.0599743889
 20
-82.4357263162
 10
126.6923390817
 20
-82.3039557001
 10
118.3485975545
 20
-82.055500603
 10
110.043387565
 20
-81.6907968996
 10
101.7912792737
 20
-81.2104844041
 10
93.6067496828
 20
-80.6154057478
 10
85.5041572381
 20
-79.906604901
 10
77.4977166401
 20
-79.0853253411
 10
69.6014739062
 20
-78.1530078716
  0
LWPOLYLINE
  5
24C
330
220
100
AcDbEntity
  8
0
  6
Continuous
 62
    60
370
    25
100
AcDbPolyline
 90
       29
 70
   128
 43
0.0
 10
206.6807447543
 20
152.4339491462
 10
214.2769137819
 20
151.4132542502
 10
221.7322866815
 20
150.2830840832
 10
229.0326717272
 20
149.0455899884
 10
236.164172221
 20
147.7031276059
 10
243.1132129465
 20
146.2582523894
 10
249.8665660097
 20
144.7137147409
 10
256.4113760191
 20
143.0724547756
 10
262.735184557
 20
141.3375967251
 10
268.8259538944
 20
139.5124429903
 10
274.6720899056
 20
137.6004678552
 10
280.2624641385
 20
135.6053108729
 10
285.5864349981
 20
133.5307699383
 10
290.6338680031
 20
131.380794058
 10
295.395155078
 20
129.1594758331
 10
299.8612328422
 20
126.8710436693
 10
304.0235998628
 20
124.5198537271
 10
307.8743328377
 20
122.1103816303
 10
311.4061016778
 20
119.647213946
 10
314.6121834604
 20
117.1350394539
 10
317.4864752265
 20
114.5786402208
 10
320.0235055985
 20
111.982882498
 10
322.2184451947
 20
109.3527074579
 10
324.067115823
 20
106.6931217881
 10
325.5659984338
 20
104.0091881612
 10
326.7122398187
 20
101.3060155973
 10
327.5036580422
 20
98.5887497391
 10
327.9387465947
 20
95.8625630565
 10
328.0308714453
 20
93.9212482055
  0
LWPOLYLINE
  5
24E
330
220
100
AcDbEntity
  8
0
  6
Continuous
 62
    60
370
    25
100
AcDbPolyline
 90
       21
 70
   128
 43
0.0
 10
177.6197956421
 20
33.4590172229
 10
178.2887579343
 20
34.7367020724
 10
180.5584284219
 20
39.3158285096
 10
182.7729709963
 20
44.1673592523
 10
184.9260060745
 20
49.277318167
 10
187.0113312624
 20
54.6309846485
 10
189.0229392223
 20
60.2129360269
 10
190.9550349788
 20
66.0070919963
 10
192.8020526127
 20
71.9967609389
 10
194.558671295
 20
78.1646880092
 10
196.2198306152
 20
84.4931048415
 10
197.780745159
 20
90.9637807365
 10
199.2369182941
 20
97.5580751793
 10
200.5841551238
 20
104.2569915388
 10
201.8185745716
 20
111.0412317926
 10
202.9366205617
 20
117.8912521198
 10
203.9350722633
 20
124.7873192024
 10
204.8110533688
 20
131.7095670724
 10
205.56204038
 20
138.638054341
 10
206.1858698779
 20
145.5528216453
 10
206.6807447543
 20
152.4339491462
  0
LWPOLYLINE
  5
24F
330
220
100
AcDbEntity
  8
0
  6
Continuous
 62
    60
370
    25
100
AcDbPolyline
 90
        8
 70
   128
 43
0.0
 10
69.6014739062
 20
-78.1530078716
 10
69.6150607647
 20
-78.5088912278
 10
69.6552992049
 20
-78.8271332203
 10
69.7206428861
 20
-79.0955039879
 10
69.8085806873
 20
-79.3036901924
 10
69.9157332081
 20
-79.4436913549
 10
70.0379826372
 20
-79.510127309
 10
70.0612363327
 20
-79.5140301477
  0
LWPOLYLINE
  5
251
330
220
100
AcDbEntity
  8
0
  6
Continuous
 62
    60
370
    25
100
AcDbPolyline
 90
        8
 70
   128
 43
0.0
 10
-210.5657233299
 20
-44.1583727478
 10
-210.58632138
 20
-44.1547882662
 10
-210.7085708091
 20
-44.0883523121
 10
-210.8157233299
 20
-43.9483511496
 10
-210.9036611311
 20
-43.740164945
 10
-210.9690048123
 20
-43.4717941775
 10
-211.0092432525
 20
-43.153552185
 10
-211.0228301111
 20
-42.7976688288
  0
LWPOLYLINE
  5
252
330
220
100
AcDbEntity
  8
0
  6
Continuous
 62
    60
370
    25
100
AcDbPolyline
 90
       29
 70
   128
 43
0.0
 10
-211.0228301111
 20
66.568179998
 10
-218.7950222879
 20
67.6098997754
 10
-226.4295288416
 20
68.7591943304
 10
-233.9129562534
 20
70.0140474097
 10
-241.2321760489
 20
71.3722575747
 10
-248.3743478293
 20
72.8314420631
 10
-255.3269417985
 20
74.3890409696
 10
-262.0777607441
 20
76.0423217363
 10
-268.6149614357
 20
77.7883839471
 10
-274.927075402
 20
79.6241644155
 10
-281.0030290502
 20
81.5464425588
 10
-286.832163093
 20
83.5518460478
 10
-292.4042512486
 20
85.6368567235
 10
-297.7095181808
 20
87.7978167686
 10
-302.7386566488
 20
90.0309351249
 10
-307.4828438347
 20
92.332294144
 10
-311.9337568222
 20
94.6978564602
 10
-316.0835871974
 20
97.1234720733
 10
-319.9250547478
 20
99.6048856293
 10
-323.4514202339
 20
102.1377438857
 10
-326.6564972124
 20
104.7176033484
 10
-329.5346628892
 20
107.3399380673
 10
-332.0808679836
 20
110.0001475761
 10
-334.2906455868
 20
112.6935649635
 10
-336.1601189979
 20
115.4154650601
 10
-337.6860085253
 20
118.1610727283
 10
-338.8656372403
 20
120.9255712393
 10
-339.6969356733
 20
123.7041107232
 10
-339.9305081269
 20
124.8126128095
  0
LWPOLYLINE
  5
253
330
220
100
AcDbEntity
  8
0
  6
Continuous
 62
    60
370
    25
100
AcDbPolyline
 90
        3
 70
   128
 43
0.0
 10
-70.3085806872
 20
192.5521013837
 10
-70.1706309976
 20
192.6375299517
 10
-70.0610299824
 20
192.6510915647
  0
LWPOLYLINE
  5
254
330
220
100
AcDbEntity
  8
0
  6
Continuous
 62
    60
370
    25
100
AcDbPolyline
 90
       29
 70
   128
 43
0.0
 10
-211.0228301111
 20
-42.7976688288
 10
-218.7950222879
 20
-41.7559490513
 10
-226.4295288416
 20
-40.6066544963
 10
-233.9129562534
 20
-39.351801417
 10
-241.2321760489
 20
-37.9935912521
 10
-248.3743478293
 20
-36.5344067637
 10
-255.3269417985
 20
-34.9768078572
 10
-262.0777607441
 20
-33.3235270904
 10
-268.6149614357
 20
-31.5774648797
 10
-274.927075402
 20
-29.7416844113
 10
-281.0030290502
 20
-27.819406268
 10
-286.832163093
 20
-25.814002779
 10
-292.4042512486
 20
-23.7289921033
 10
-297.7095181808
 20
-21.5680320582
 10
-302.7386566488
 20
-19.3349137018
 10
-307.4828438347
 20
-17.0335546827
 10
-311.9337568222
 20
-14.6679923666
 10
-316.0835871974
 20
-12.2423767535
 10
-319.9250547478
 20
-9.7609631974
 10
-323.4514202339
 20
-7.228104941
 10
-326.6564972124
 20
-4.6482454784
 10
-329.5346628892
 20
-2.0259107595
 10
-332.0808679836
 20
0.6342987493
 10
-334.2906455868
 20
3.3277161367
 10
-336.1601189979
 20
6.0496162334
 10
-337.6860085253
 20
8.7952239016
 10
-338.8656372403
 20
11.5597224125
 10
-339.6969356733
 20
14.3382618964
 10
-339.9305081269
 20
15.4467639826
  0
LWPOLYLINE
  5
255
330
220
100
AcDbEntity
  8
0
  6
Continuous
 62
    60
370
    25
100
AcDbPolyline
 90
       46
 70
   128
 43
0.0
 10
-328.0308714453
 20
129.2387949465
 10
-328.0166772604
 20
130.0273981512
 10
-327.7373016938
 20
132.7558510257
 10
-327.1011517023
 20
135.4776449539
 10
-326.1094382335
 20
138.1875988465
 10
-324.7640490703
 20
140.8805541522
 10
-323.0675452375
 20
143.5513846774
 10
-321.0231561265
 20
146.1950063445
 10
-318.6347733483
 20
148.8063868693
 10
-315.9069433251
 20
151.3805553407
 10
-312.8448586365
 20
153.9126116826
 10
-309.4543481348
 20
156.3977359819
 10
-305.7418658493
 20
158.8311976632
 10
-301.7144787011
 20
161.2083644939
 10
-297.3798530505
 20
163.5247114019
 10
-292.7462401038
 20
165.7758290891
 10
-287.8224602067
 20
167.957432425
 10
-282.617886054
 20
170.0653686038
 10
-277.1424248484
 20
172.0956250491
 10
-271.4064994415
 20
174.0443370524
 10
-265.4210284933
 20
175.9077951296
 10
-259.1974056881
 20
177.6824520824
 10
-252.7474780455
 20
179.3649297503
 10
-246.0835233693
 20
180.9520254416
 10
-239.2182268761
 20
182.4407180293
 10
-232.164657048
 20
183.8281737025
 10
-224.9362407559
 20
185.1117513605
 10
-217.5467377013
 20
186.2890076402
 10
-210.010214223
 20
187.3577015675
 10
-202.3410165219
 20
188.3157988227
 10
-194.5537433517
 20
189.1614756131
 10
-186.6632182295
 20
189.893122145
 10
-178.6844612184
 20
190.5093456876
 10
-170.6326603357
 20
191.0089732244
 10
-162.5231426421
 20
191.391053686
 10
-154.3713450654
 20
191.6548597604
 10
-146.1927850157
 20
191.7998892779
 10
-138.0030308468
 20
191.8258661664
 10
-129.8176722214
 20
191.7327409776
 10
-121.6522904346
 20
191.5206909805
 10
-113.5224287549
 20
191.1901198243
 10
-105.4435628361
 20
190.74165677
 10
-97.4310712585
 20
190.1761554925
 10
-89.5002062554
 20
189.4946924557
 10
-81.6660646789
 20
188.6985648632
 10
-73.9435592629
 20
187.789288189
  0
LWPOLYLINE
  5
256
330
220
100
AcDbEntity
  8
0
  6
Continuous
 62
    60
370
    25
100
AcDbPolyline
 90
       23
 70
   128
 43
0.0
 10
-73.9435592629
 20
187.789288189
 10
-74.4384341394
 20
180.9081606881
 10
-75.0622636372
 20
173.9933933838
 10
-75.8132506485
 20
167.0649061152
 10
-76.689231754
 20
160.1426582452
 10
-77.6876834555
 20
153.2465911626
 10
-78.8057294457
 20
146.3965708354
 10
-80.0401488935
 20
139.6123305816
 10
-81.3873857232
 20
132.9134142221
 10
-82.8435588583
 20
126.3191197793
 10
-84.4044734021
 20
119.8484438843
 10
-86.0656327223
 20
113.520027052
 10
-87.8222514046
 20
107.3520999817
 10
-89.6692690385
 20
101.3624310391
 10
-91.601364795
 20
95.5682750697
 10
-93.6129727549
 20
89.9863236913
 10
-95.6982979427
 20
84.6326572098
 10
-97.8513330209
 20
79.5226982951
 10
-100.0658755953
 20
74.6711675524
 10
-102.3355460829
 20
70.0920411152
 10
-104.6538060902
 20
65.7985103835
 10
-107.0139772483
 20
61.8029440223
 10
-108.5799366038
 20
59.3520154118
  0
LINE
  5
257
330
220
100
AcDbEntity
  8
0
  6
Continuous
 62
     7
370
    25
100
AcDbLine
 10
340.3121520086
 20
-15.7920514382
 30
0.0
 11
340.3121520086
 21
93.5737973886
 31
0.0
  0
LINE
  5
258
330
220
100
AcDbEntity
  8
0
  6
Continuous
 62
     7
370
    25
100
AcDbLine
 10
73.4972692452
 20
36.4124437047
 30
0.0
 11
-207.127034772
 21
71.7677827475
 31
0.0
  0
LINE
  5
259
330
220
100
AcDbEntity
  8
0
  6
Continuous
 62
     7
370
    25
100
AcDbLine
 10
-210.5657233299
 20
-44.1583727478
 30
0.0
 11
70.0585806873
 21
-79.5137117906
 31
0.0
  0
LINE
  5
25A
330
220
100
AcDbEntity
  8
0
  6
Continuous
 62
     7
370
    25
100
AcDbLine
 10
-340.3121520086
 20
128.9291364314
 30
0.0
 11
-340.3121520086
 21
19.5632876046
 31
0.0
  0
LINE
  5
25B
330
220
100
AcDbEntity
  8
0
  6
Continuous
 62
     7
370
    25
100
AcDbLine
 10
210.5657233299
 20
157.295457741
 30
0.0
 11
-70.0585806873
 21
192.6507967838
 31
0.0
  0
LINE
  5
25C
330
220
100
AcDbEntity
  8
0
  6
Continuous
 62
     7
370
    25
100
AcDbLine
 10
69.6014739062
 20
31.2128409552
 30
0.0
 11
69.6014739062
 21
-78.1530078716
 31
0.0
  0
LINE
  5
25D
330
220
100
AcDbEntity
  8
0
  6
Continuous
 62
     7
370
    25
100
AcDbLine
 10
73.2472692453
 20
36.3137483046
 30
0.0
 11
-207.3770347719
 21
71.6690873474
 31
0.0
  0
LINE
  5
25E
330
220
100
AcDbEntity
  8
0
  6
Continuous
 62
     7
370
    25
100
AcDbLine
 10
-73.2472692453
 20
189.9604216818
 30
0.0
 11
207.3770347719
 21
154.605082639
 31
0.0
  0
LINE
  5
25F
330
220
100
AcDbEntity
  8
0
  6
Continuous
 62
     7
370
    25
100
AcDbLine
 10
-70.3085806872
 20
192.5521013837
 30
0.0
 11
210.31572333
 21
157.1967623409
 31
0.0
  0
LINE
  5
260
330
220
100
AcDbEntity
  8
0
  6
Continuous
 62
     7
370
    25
100
AcDbLine
 10
70.3085806872
 20
33.7220686027
 30
0.0
 11
-210.31572333
 21
69.0774076455
 31
0.0
  0
LINE
  5
261
330
220
100
AcDbEntity
  8
0
  6
Continuous
 62
     7
370
    25
100
AcDbLine
 10
69.6014739062
 20
31.2128409552
 30
0.0
 11
-211.0228301111
 21
66.568179998
 31
0.0
  0
LINE
  5
262
330
220
100
AcDbEntity
  8
0
  6
Continuous
 62
     7
370
    25
100
AcDbLine
 10
69.6014739062
 20
-78.1530078716
 30
0.0
 11
-211.0228301111
 21
-42.7976688288
 31
0.0
  0
LINE
  5
263
330
220
100
AcDbEntity
  8
0
  6
Continuous
 62
     7
370
    25
100
AcDbLine
 10
-211.0228301111
 20
-42.7976688288
 30
0.0
 11
-211.0228301111
 21
66.568179998
 31
0.0
  0
LINE
  5
264
330
220
100
AcDbEntity
  8
0
  6
Continuous
 62
     7
370
    25
100
AcDbLine
 10
-73.9435592629
 20
187.789288189
 30
0.0
 11
206.6807447543
 21
152.4339491462
 31
0.0
  0
ARC
  5
265
330
220
100
AcDbEntity
  8
0
  6
Continuous
 62
     7
370
    25
100
AcDbCircle
 10
317.8663265945
 20
93.5737536161
 30
0.0
 40
22.44491554468122
100
AcDbArc
 50
349.3888269651
 51
10.5683043393
  0
ARC
  5
266
330
220
100
AcDbEntity
  8
0
  6
Continuous
 62
     7
370
    25
100
AcDbCircle
 10
73.5314209236
 20
31.4596178903
 30
0.0
 40
3.937687445099596
100
AcDbArc
 50
144.9309440897
 51
183.5931111894
  0
ARC
  5
267
330
220
100
AcDbEntity
  8
0
  6
Continuous
 62
     7
370
    25
100
AcDbCircle
 10
317.7964994033
 20
-15.7806542178
 30
0.0
 40
22.51565548995056
100
AcDbArc
 50
349.3929311855
 51
359.9709973953
  0
ARC
  5
268
330
220
100
AcDbEntity
  8
0
  6
Continuous
 62
     7
370
    25
100
AcDbCircle
 10
306.1304157825
 20
93.9834531211
 30
0.0
 40
21.90054400447621
100
AcDbArc
 50
340.0087128173
 51
359.8372604844
  0
ARC
  5
269
330
220
100
AcDbEntity
  8
0
  6
Continuous
 62
     7
370
    25
100
AcDbCircle
 10
210.31210195
 20
152.466578393
 30
0.0
 40
3.631503786370545
100
AcDbArc
 50
143.922736729
 51
180.5148124291
  0
ARC
  5
26A
330
220
100
AcDbEntity
  8
0
  6
Continuous
 62
     7
370
    25
100
AcDbCircle
 10
-207.0928830937
 20
66.8149569331
 30
0.0
 40
3.937687445091482
100
AcDbArc
 50
144.9309440897
 51
183.5931111895
  0
ARC
  5
26B
330
220
100
AcDbEntity
  8
0
  6
Continuous
 62
     7
370
    25
100
AcDbCircle
 10
-317.8663265945
 20
128.9291802039
 30
0.0
 40
22.44491554465856
100
AcDbArc
 50
169.3888269662
 51
190.568304339
  0
ARC
  5
26C
330
220
100
AcDbEntity
  8
0
  6
Continuous
 62
     7
370
    25
100
AcDbCircle
 10
-70.3122020672
 20
187.8219174358
 30
0.0
 40
3.631503786368543
100
AcDbArc
 50
143.922736729
 51
180.5148124291
  0
ARC
  5
26D
330
220
100
AcDbEntity
  8
0
  6
Continuous
 62
     7
370
    25
100
AcDbCircle
 10
-306.2181964756
 20
129.3266902731
 30
0.0
 40
21.81285205840483
100
AcDbArc
 50
180.2308751221
 51
199.5633930732
  0
ARC
  5
26E
330
220
100
AcDbEntity
  8
0
  6
Continuous
 62
    60
370
    25
100
AcDbCircle
 10
73.4707005008
 20
36.1128290805
 30
0.0
 40
0.3004830453369531
100
AcDbArc
 50
83.5140376107
 51
138.036726614
  0
ARC
  5
26F
330
220
100
AcDbEntity
  8
0
  6
Continuous
 62
    60
370
    25
100
AcDbCircle
 10
-207.1523151965
 20
71.4658407643
 30
0.0
 40
0.3029984506499016
100
AcDbArc
 50
85.2140103916
 51
137.8723788805
  0
VIEWPORT
  5
280
330
220
100
AcDbEntity
  8
0
100
AcDbViewport
 10
0.0
 20
0.0
 30
0.0
 40
205.6
 41
156.0
 68
     1
 69
     1
 12
0.0
 22
0.0
 13
0.0
 23
0.0
 14
10.0
 24
10.0
 15
10.0
 25
10.0
 16
0.0
 26
0.0
 36
1.0
 17
0.0
 27
0.0
 37
0.0
 42
50.0
 43
0.0
 44
0.0
 45
541.7509727626
 50
0.0
 51
0.0
 72
   100
 90
   557152
  1

281
     0
 71
     1
 74
     0
110
0.0
120
0.0
130
0.0
111
1.0
121
0.0
131
0.0
112
0.0
122
1.0
132
0.0
 79
     0
146
0.0
  0
ENDBLK
  5
223
330
220
100
AcDbEntity
  8
0
100
AcDbBlockEnd
  0
ENDSEC
  0
SECTION
  2
ENTITIES
  0
SPLINE
  5
74
330
1F
100
AcDbEntity
  8
0
  6
Continuous
 62
     7
370
    25
100
AcDbSpline
210
0.0
220
0.0
230
1.0
 70
     8
 71
     3
 72
    64
 73
    60
 74
     0
 42
0.000000001
 43
0.00000001
 40
0.0
 40
0.0
 40
0.0
 40
0.0
 40
0.0023885885243194
 40
0.0047765177248717
 40
0.0071639217279585
 40
0.0095509347484142
 40
0.0119376910670317
 40
0.0143243250079329
 40
0.0167109709159024
 40
0.0190977631337041
 40
0.0214848359793994
 40
0.0238723237236857
 40
0.026260360567276
 40
0.0286490806183362
 40
0.0434544145213859
 40
0.0582606233425627
 40
0.0735060597266646
 40
0.088752364591069
 40
0.1043850313807701
 40
0.1200185552691841
 40
0.1359754356819927
 40
0.1519331905748459
 40
0.1843415545732702
 40
0.2170946803745513
 40
0.2500229487749599
 40
0.2829512171753665
 40
0.3157043429766435
 40
0.3481127069750641
 40
0.380017308587126
 40
0.4112740653618535
 40
0.4417570570548415
 40
0.4713605868992761
 40
0.5000000644704581
 40
0.5286395420416401
 40
0.5582430718860776
 40
0.5887260635790628
 40
0.6199828203537959
 40
0.6518874219658497
 40
0.6842957859642755
 40
0.7170489117655453
 40
0.7499771801659563
 40
0.7829054485663609
 40
0.8156585743676456
 40
0.8480669383660698
 40
0.864023818469531
 40
0.8799815736927594
 40
0.8956142400704283
 40
0.9112477643923403
 40
0.9264932006656778
 40
0.941739505594975
 40
0.956544839461876
 40
0.9713510483485027
 40
0.9754453418533033
 40
0.9795379790893132
 40
0.9836296363079846
 40
0.9877209902467251
 40
0.9918127177934214
 40
0.9959054956505926
 40
1.0
 40
1.0
 40
1.0
 40
1.0
 10
149.9999999999995
 20
189.6881335690938
 30
0.0
 10
150.4743242644775
 20
189.6871084201929
 30
0.0
 10
151.4228418653738
 20
189.6850584053636
 30
0.0
 10
152.8453686932058
 20
189.6684706974838
 30
0.0
 10
154.2674229212335
 20
189.6419899381096
 30
0.0
 10
155.689004537652
 20
189.6046467522314
 30
0.0
 10
157.1101135303817
 20
189.5567008034938
 30
0.0
 10
158.5307498785522
 20
189.4980825321038
 30
0.0
 10
159.950913596662
 20
189.4288105678942
 30
0.0
 10
161.3706045665449
 20
189.3488799448628
 30
0.0
 10
162.7898231655014
 20
189.2582919031608
 30
0.0
 10
164.208567921458
 20
189.1570464558486
 30
0.0
 10
165.626844266628
 20
189.0451423198368
 30
0.0
 10
169.500986849938
 20
188.7102501444986
 30
0.0
 10
175.8175323724736
 20
187.9922220675632
 30
0.0
 10
184.6147525707201
 20
186.5746165541588
 30
0.0
 10
193.4215760211511
 20
184.7261836992854
 30
0.0
 10
202.2884204646526
 20
182.4162219409004
 30
0.0
 10
211.1069183742327
 20
179.6567968765436
 30
0.0
 10
219.9114578690481
 20
176.4184274638219
 30
0.0
 10
228.6047058086859
 20
172.7226791567257
 30
0.0
 10
240.098160313377
 20
167.140023705979
 30
0.0
 10
254.0385567740336
 20
159.0079698774485
 30
0.0
 10
269.7992625307313
 20
147.5046832616152
 30
0.0
 10
284.3693164042685
 20
134.369256196428
 30
0.0
 10
297.5046134964543
 20
119.7994329564384
 30
0.0
 10
309.0081867366166
 20
104.0379415240029
 30
0.0
 10
318.7378814769728
 20
87.35993507001841
 30
0.0
 10
326.6120624317232
 20
70.05746751973746
 30
0.0
 10
332.6097861095338
 20
52.42384924842639
 30
0.0
 10
336.7666920689717
 20
34.73924333037816
 30
0.0
 10
339.1673017909237
 20
17.25875540567857
 30
0.0
 10
339.9442389917207
 20
-0.0000000000001252
 30
0.0
 10
339.1673017909231
 20
-17.25875540567873
 30
0.0
 10
336.7666920689742
 20
-34.73924333038045
 30
0.0
 10
332.6097861095246
 20
-52.42384924842193
 30
0.0
 10
326.6120624317552
 20
-70.05746751976139
 30
0.0
 10
318.737881476857
 20
-87.35993506993272
 30
0.0
 10
309.0081867370502
 20
-104.0379415243292
 30
0.0
 10
297.5046134948232
 20
-119.7994329552048
 30
0.0
 10
284.3693164103799
 20
-134.3692562010453
 30
0.0
 10
269.7992625079877
 20
-147.5046832444235
 30
0.0
 10
254.0385568580265
 20
-159.0079699409291
 30
0.0
 10
240.0983104030808
 20
-167.1399358259767
 30
0.0
 10
228.6048645019858
 20
-172.7226074320105
 30
0.0
 10
219.9117775982707
 20
-176.4183006490721
 30
0.0
 10
211.1070800574015
 20
-179.6567423275112
 30
0.0
 10
202.288750205503
 20
-182.4161274862147
 30
0.0
 10
193.4217430892306
 20
-184.7261437542994
 30
0.0
 10
184.6150967393076
 20
-186.5745516436228
 30
0.0
 10
175.8176912675149
 20
-187.9922056014158
 30
0.0
 10
169.1645316292044
 20
-188.7484884059339
 30
0.0
 10
164.614447605039
 20
-189.1295781149658
 30
0.0
 10
162.1821971444859
 20
-189.301860042753
 30
0.0
 10
159.7485262921771
 20
-189.4427734925862
 30
0.0
 10
157.3134212813426
 20
-189.5525247513651
 30
0.0
 10
154.8768860576079
 20
-189.6303504962423
 30
0.0
 10
152.4389198004569
 20
-189.6790985348167
 30
0.0
 10
150.8130875492178
 20
-189.6851214676385
 30
0.0
 10
149.9999999999995
 20
-189.6881335690921
 30
0.0
  0
SPLINE
  5
76
330
1F
100
AcDbEntity
  8
0
  6
Continuous
 62
     7
370
    25
100
AcDbSpline
210
0.0
220
0.0
230
1.0
 70
     8
 71
     3
 72
    64
 73
    60
 74
     0
 42
0.000000001
 43
0.00000001
 40
0.0
 40
0.0
 40
0.0
 40
0.0
 40
0.0023885885205236
 40
0.0047765177179702
 40
0.0071639217186416
 40
0.009550934737372
 40
0.0119376910549544
 40
0.0143243249955101
 40
0.0167109709038234
 40
0.0190977631226577
 40
0.0214848359700738
 40
0.0238723237167683
 40
0.0262603605634532
 40
0.0286490806182937
 40
0.043454414640685
 40
0.058260623342831
 40
0.0735060602441351
 40
0.0887523645919085
 40
0.1043850309531139
 40
0.1200185552671297
 40
0.1359754349882425
 40
0.1519331905751321
 40
0.1843415545735468
 40
0.2170946803748146
 40
0.2500229487752098
 40
0.2829512171756176
 40
0.3157043429768872
 40
0.3481127069753029
 40
0.3800173085873509
 40
0.4112740653620753
 40
0.4417570570550552
 40
0.4713605868994853
 40
0.5000000644706611
 40
0.528639542041837
 40
0.5582430718862642
 40
0.588726063579247
 40
0.6199828203539657
 40
0.6518874219660218
 40
0.6842957859644324
 40
0.7170489117657093
 40
0.7499771801661126
 40
0.7829054485665118
 40
0.8156585743677761
 40
0.8480669383661906
 40
0.864023818650811
 40
0.8799815736930564
 40
0.8956142403716404
 40
0.9112477643927528
 40
0.9264932009466044
 40
0.9417395055952226
 40
0.9565448395816459
 40
0.971351048348545
 40
0.9754453418594061
 40
0.9795379790994598
 40
0.9836296363201542
 40
0.9877209902588933
 40
0.9918127178035616
 40
0.995905495656677
 40
1.0
 40
1.0
 40
1.0
 40
1.0
 10
-149.9999999999995
 20
-189.6881335690921
 30
0.0
 10
-150.4743242637238
 20
-189.6871084201908
 30
0.0
 10
-151.4228418632498
 20
-189.6850584053605
 30
0.0
 10
-152.8453686892319
 20
-189.6684706974789
 30
0.0
 10
-154.2674229158207
 20
-189.6419899381033
 30
0.0
 10
-155.6890045312112
 20
-189.6046467522234
 30
0.0
 10
-157.110113523324
 20
-189.5567008034844
 30
0.0
 10
-158.5307498712887
 20
-189.4980825320928
 30
0.0
 10
-159.9509135896036
 20
-189.4288105678818
 30
0.0
 10
-161.3706045601027
 20
-189.3488799448486
 30
0.0
 10
-162.7898231600865
 20
-189.2582919031463
 30
0.0
 10
-164.2085679174806
 20
-189.1570464558273
 30
0.0
 10
-165.6268442645029
 20
-189.0451423198346
 30
0.0
 10
-169.5009868727987
 20
-188.710250142652
 30
0.0
 10
-175.8175323970547
 20
-187.9922220719778
 30
0.0
 10
-184.6147526945829
 20
-186.574616528817
 30
0.0
 10
-193.4215761230431
 20
-184.72618368471
 30
0.0
 10
-202.2884204839036
 20
-182.4162219424718
 30
0.0
 10
-211.1069182757424
 20
-179.6567968503601
 30
0.0
 10
-219.9114576629049
 20
-176.4184275484144
 30
0.0
 10
-228.6047057011842
 20
-172.7226792526694
 30
0.0
 10
-240.098160183253
 20
-167.1400237529044
 30
0.0
 10
-254.0385567777818
 20
-159.0079698852658
 30
0.0
 10
-269.7992625297098
 20
-147.5046832594931
 30
0.0
 10
-284.3693164045374
 20
-134.3692561969958
 30
0.0
 10
-297.5046134963738
 20
-119.7994329562824
 30
0.0
 10
-309.0081867366442
 20
-104.0379415240474
 30
0.0
 10
-318.7378814769629
 20
-87.3599350700056
 30
0.0
 10
-326.6120624317311
 20
-70.05746751974341
 30
0.0
 10
-332.6097861095272
 20
-52.42384924842552
 30
0.0
 10
-336.7666920689772
 20
-34.73924333038017
 30
0.0
 10
-339.1673017909192
 20
-17.25875540567865
 30
0.0
 10
-339.9442389917227
 20
0.000000000000113
 30
0.0
 10
-339.1673017909189
 20
17.25875540567765
 30
0.0
 10
-336.7666920689785
 20
34.73924333038074
 30
0.0
 10
-332.6097861095212
 20
52.42384924841903
 30
0.0
 10
-326.612062431757
 20
70.05746751976149
 30
0.0
 10
-318.7378814768575
 20
87.35993506993019
 30
0.0
 10
-309.0081867370537
 20
104.0379415243352
 30
0.0
 10
-297.504613494816
 20
119.7994329551931
 30
0.0
 10
-284.369316410394
 20
134.3692562010956
 30
0.0
 10
-269.7992625078982
 20
147.5046832442326
 30
0.0
 10
-254.0385568583494
 20
159.0079699416449
 30
0.0
 10
-240.0983103710147
 20
167.139935842066
 30
0.0
 10
-228.6048644707726
 20
172.7226074504754
 30
0.0
 10
-219.9117775089534
 20
176.4183006834346
 30
0.0
 10
-211.1070800014927
 20
179.6567423489787
 30
0.0
 10
-202.2887500945426
 20
182.4161275182483
 30
0.0
 10
-193.4217430341158
 20
184.7261437637038
 30
0.0
 10
-184.6150966614128
 20
186.5745516594852
 30
0.0
 10
-175.8176912432276
 20
187.9922055996139
 30
0.0
 10
-169.1645316043869
 20
188.7484884087336
 30
0.0
 10
-164.6144476018038
 20
189.1295781148606
 30
0.0
 10
-162.1821971388463
 20
189.3018600427323
 30
0.0
 10
-159.7485262853286
 20
189.4427734925526
 30
0.0
 10
-157.3134212744962
 20
189.5525247513451
 30
0.0
 10
-154.8768860519701
 20
189.6303504962276
 30
0.0
 10
-152.4389197972358
 20
189.6790985348122
 30
0.0
 10
-150.8130875480097
 20
189.6851214676387
 30
0.0
 10
-149.9999999999995
 20
189.6881335690938
 30
0.0
  0
SPLINE
  5
78
330
1F
100
AcDbEntity
  8
0
  6
Continuous
 62
     7
370
    25
100
AcDbSpline
210
0.0
220
0.0
230
1.0
 70
     8
 71
     3
 72
    14
 73
    10
 74
     0
 42
0.000000001
 43
0.00000001
 40
0.0
 40
0.0
 40
0.0
 40
0.0
 40
0.25
 40
0.25
 40
0.5
 40
0.5
 40
0.75
 40
0.75
 40
1.0
 40
1.0
 40
1.0
 40
1.0
 10
149.9999999999995
 20
-198.0000000000003
 30
0.0
 10
202.5113788319997
 20
-198.0000000000003
 30
0.0
 10
252.8759906133731
 20
-177.1382947364996
 30
0.0
 10
327.1382947364992
 20
-102.8759906133736
 30
0.0
 10
347.9999999999999
 20
-52.51137883200009
 30
0.0
 10
347.9999999999998
 20
52.51137883200018
 30
0.0
 10
327.1382947364991
 20
102.8759906133737
 30
0.0
 10
252.8759906133731
 20
177.1382947364997
 30
0.0
 10
202.5113788319995
 20
198.0000000000004
 30
0.0
 10
149.9999999999994
 20
198.0000000000004
 30
0.0
  0
SPLINE
  5
7A
330
1F
100
AcDbEntity
  8
0
  6
Continuous
 62
     7
370
    25
100
AcDbSpline
210
0.0
220
0.0
230
1.0
 70
     8
 71
     3
 72
    14
 73
    10
 74
     0
 42
0.000000001
 43
0.00000001
 40
0.0
 40
0.0
 40
0.0
 40
0.0
 40
0.2499999999999996
 40
0.2499999999999996
 40
0.4999999999999997
 40
0.4999999999999997
 40
0.7499999999999998
 40
0.7499999999999998
 40
1.0
 40
1.0
 40
1.0
 40
1.0
 10
-150.0000000000011
 20
197.9999999999985
 30
0.0
 10
-202.5113788320006
 20
197.9999999999981
 30
0.0
 10
-252.8759906133741
 20
177.1382947364968
 30
0.0
 10
-327.1382947364986
 20
102.8759906133708
 30
0.0
 10
-347.9999999999987
 20
52.51137883199696
 30
0.0
 10
-347.9999999999974
 20
-52.51137883200226
 30
0.0
 10
-327.1382947364959
 20
-102.8759906133756
 30
0.0
 10
-252.8759906133695
 20
-177.1382947364997
 30
0.0
 10
-202.5113788319956
 20
-197.9999999999996
 30
0.0
 10
-149.9999999999959
 20
-197.9999999999986
 30
0.0
  0
SPLINE
  5
8D
330
1F
100
AcDbEntity
  8
0
  6
Continuous
 62
     7
370
    25
100
AcDbSpline
210
0.0
220
0.0
230
1.0
 70
     8
 71
     3
 72
    14
 73
    10
 74
     0
 42
0.000000001
 43
0.00000001
 40
0.0
 40
0.0
 40
0.0
 40
0.0
 40
0.25
 40
0.25
 40
0.5
 40
0.5
 40
0.75
 40
0.75
 40
1.0
 40
1.0
 40
1.0
 40
1.0
 10
-150.0000000000012
 20
59.70736576092683
 30
0.0
 10
-165.834929810773
 20
59.70736576092636
 30
0.0
 10
-181.0224969675278
 20
53.4164694651459
 30
0.0
 10
-203.4164694651467
 20
31.0224969675259
 30
0.0
 10
-209.7073657609265
 20
15.83492981077089
 30
0.0
 10
-209.7073657609261
 20
-15.8349298107727
 30
0.0
 10
-203.4164694651459
 20
-31.02249696752752
 30
0.0
 10
-181.0224969675262
 20
-53.41646946514685
 30
0.0
 10
-165.8349298107713
 20
-59.70736576092686
 30
0.0
 10
-149.9999999999995
 20
-59.70736576092686
 30
0.0
  0
SPLINE
  5
90
330
1F
100
AcDbEntity
  8
0
  6
Continuous
 62
     7
370
    25
100
AcDbSpline
210
0.0
220
0.0
230
1.0
 70
     8
 71
     3
 72
    14
 73
    10
 74
     0
 42
0.000000001
 43
0.00000001
 40
0.0
 40
0.0
 40
0.0
 40
0.0
 40
0.25
 40
0.25
 40
0.5
 40
0.5
 40
0.75
 40
0.75
 40
1.0
 40
1.0
 40
1.0
 40
1.0
 10
149.9999999999995
 20
-59.7073657609286
 30
0.0
 10
165.8349298107717
 20
-59.7073657609286
 30
0.0
 10
181.0224969675275
 20
-53.41646946514818
 30
0.0
 10
203.4164694651476
 20
-31.02249696752801
 30
0.0
 10
209.707365760928
 20
-15.83492981077227
 30
0.0
 10
209.707365760928
 20
15.83492981077225
 30
0.0
 10
203.4164694651476
 20
31.022496967528
 30
0.0
 10
181.0224969675275
 20
53.41646946514815
 30
0.0
 10
165.8349298107717
 20
59.70736576092857
 30
0.0
 10
149.9999999999995
 20
59.70736576092857
 30
0.0
  0
CIRCLE
  5
93
330
1F
100
AcDbEntity
  8
0
  6
Continuous
 62
     7
370
    25
100
AcDbCircle
 10
0.0
 20
0.0
 30
0.0
 40
35.00000000000016
  0
CIRCLE
  5
94
330
1F
100
AcDbEntity
  8
0
  6
Continuous
 62
     7
370
    25
100
AcDbCircle
 10
0.0
 20
0.0
 30
0.0
 40
22.99999999999946
  0
LINE
  5
95
330
1F
100
AcDbEntity
  8
0
  6
Continuous
 62
     7
370
    25
100
AcDbLine
 10
150.0
 20
-189.6881335691
 30
0.0
 11
-150.0
 21
-189.6881335691
 31
0.0
  0
LINE
  5
96
330
1F
100
AcDbEntity
  8
0
  6
Continuous
 62
     7
370
    25
100
AcDbLine
 10
-150.0
 20
189.6881335691
 30
0.0
 11
150.0
 21
189.6881335691
 31
0.0
  0
LINE
  5
97
330
1F
100
AcDbEntity
  8
0
  6
Continuous
 62
     7
370
    25
100
AcDbLine
 10
-150.0
 20
198.0
 30
0.0
 11
150.0
 21
198.0
 31
0.0
  0
LINE
  5
98
330
1F
100
AcDbEntity
  8
0
  6
Continuous
 62
     7
370
    25
100
AcDbLine
 10
150.0
 20
-198.0
 30
0.0
 11
-150.0
 21
-198.0
 31
0.0
  0
LINE
  5
99
330
1F
100
AcDbEntity
  8
0
  6
Continuous
 62
     7
370
    25
100
AcDbLine
 10
150.0
 20
-200.0
 30
0.0
 11
-150.0
 21
-200.0
 31
0.0
  0
LINE
  5
9A
330
1F
100
AcDbEntity
  8
0
  6
Continuous
 62
     7
370
    25
100
AcDbLine
 10
-150.0
 20
-200.0
 30
0.0
 11
-150.0
 21
-198.0
 31
0.0
  0
LINE
  5
9B
330
1F
100
AcDbEntity
  8
0
  6
Continuous
 62
     7
370
    25
100
AcDbLine
 10
150.0
 20
-198.0
 30
0.0
 11
150.0
 21
-200.0
 31
0.0
  0
LINE
  5
9C
330
1F
100
AcDbEntity
  8
0
  6
Continuous
 62
     7
370
    25
100
AcDbLine
 10
-150.0
 20
-189.6881335691
 30
0.0
 11
-150.0
 21
-59.7073657609
 31
0.0
  0
LINE
  5
9D
330
1F
100
AcDbEntity
  8
0
  6
Continuous
 62
     7
370
    25
100
AcDbLine
 10
150.0
 20
-187.7187279962
 30
0.0
 11
-150.0
 21
-187.7187279962
 31
0.0
  0
LINE
  5
9E
330
1F
100
AcDbEntity
  8
0
  6
Continuous
 62
     7
370
    25
100
AcDbLine
 10
150.0
 20
-189.6881335691
 30
0.0
 11
150.0
 21
-59.7073657609
 31
0.0
  0
LINE
  5
9F
330
1F
100
AcDbEntity
  8
0
  6
Continuous
 62
     7
370
    25
100
AcDbLine
 10
-150.0
 20
198.0
 30
0.0
 11
-150.0
 21
200.0
 31
0.0
  0
LINE
  5
A0
330
1F
100
AcDbEntity
  8
0
  6
Continuous
 62
     7
370
    25
100
AcDbLine
 10
-150.0
 20
200.0
 30
0.0
 11
150.0
 21
200.0
 31
0.0
  0
LINE
  5
A1
330
1F
100
AcDbEntity
  8
0
  6
Continuous
 62
     7
370
    25
100
AcDbLine
 10
150.0
 20
198.0
 30
0.0
 11
150.0
 21
200.0
 31
0.0
  0
LINE
  5
A2
330
1F
100
AcDbEntity
  8
0
  6
Continuous
 62
     7
370
    25
100
AcDbLine
 10
-150.0
 20
187.7187279962
 30
0.0
 11
150.0
 21
187.7187279962
 31
0.0
  0
LINE
  5
A3
330
1F
100
AcDbEntity
  8
0
  6
Continuous
 62
     7
370
    25
100
AcDbLine
 10
-150.0
 20
189.6881335691
 30
0.0
 11
-150.0
 21
59.7073657609
 31
0.0
  0
LINE
  5
A4
330
1F
100
AcDbEntity
  8
0
  6
Continuous
 62
     7
370
    25
100
AcDbLine
 10
150.0
 20
59.7073657609
 30
0.0
 11
150.0
 21
189.6881335691
 31
0.0
  0
LINE
  5
A5
330
1F
100
AcDbEntity
  8
0
  6
Continuous
 62
     7
370
    25
100
AcDbLine
 10
150.0
 20
-59.7073657609
 30
0.0
 11
-150.0
 21
-59.7073657609
 31
0.0
  0
LINE
  5
A6
330
1F
100
AcDbEntity
  8
0
  6
Continuous
 62
     7
370
    25
100
AcDbLine
 10
-150.0
 20
59.7073657609
 30
0.0
 11
150.0
 21
59.7073657609
 31
0.0
  0
ARC
  5
A7
330
1F
100
AcDbEntity
  8
0
  6
Continuous
 62
     7
370
    25
100
AcDbCircle
 10
-150.0
 20
0.0
 30
0.0
 40
199.9999999999993
100
AcDbArc
 50
90.0
 51
270.0
  0
ARC
  5
A8
330
1F
100
AcDbEntity
  8
0
  6
Continuous
 62
     7
370
    25
100
AcDbCircle
 10
-150.0
 20
0.0
 30
0.0
 40
187.7187279962431
100
AcDbArc
 50
90.0
 51
270.0
  0
ARC
  5
A9
330
1F
100
AcDbEntity
  8
0
  6
Continuous
 62
     7
370
    25
100
AcDbCircle
 10
150.0
 20
0.0
 30
0.0
 40
187.7187279962431
100
AcDbArc
 50
270.0
 51
90.0
  0
ARC
  5
AA
330
1F
100
AcDbEntity
  8
0
  6
Continuous
 62
     7
370
    25
100
AcDbCircle
 10
150.0
 20
0.0
 30
0.0
 40
199.9999999999993
100
AcDbArc
 50
270.0
 51
90.0
  0
SPLINE
  5
B1
330
1B
100
AcDbEntity
 67
     1
  8
0
  6
Continuous
 62
     7
370
    25
100
AcDbSpline
210
0.0
220
0.0
230
1.0
 70
    24
 71
     3
 72
    10
 73
     6
 74
     0
 42
0.000000001
 43
0.00000001
 40
0.0
 40
0.0
 40
0.0
 40
0.0
 40
0.5
 40
0.5
 40
1.0
 40
1.0
 40
1.0
 40
1.0
 10
-347.9999999999972
 20
120.0000000000008
 30
0.0
 10
-347.9999999999973
 20
120.0000000000008
 30
0.0
 10
-327.1382947364959
 20
120.0000000000008
 30
0.0
 10
-252.8759906133697
 20
120.0000000000008
 30
0.0
 10
-202.5113788319946
 20
120.0000000000008
 30
0.0
 10
-149.999999999995
 20
120.0000000000008
 30
0.0
  0
SPLINE
  5
B3
330
1B
100
AcDbEntity
 67
     1
  8
0
  6
Continuous
 62
     7
370
    25
100
AcDbSpline
210
0.0
220
0.0
230
1.0
 70
    24
 71
     3
 72
    10
 73
     6
 74
     0
 42
0.000000001
 43
0.00000001
 40
0.0
 40
0.0
 40
0.0
 40
0.0
 40
0.5
 40
0.5
 40
1.0
 40
1.0
 40
1.0
 40
1.0
 10
347.9999999999989
 20
0.000000000000569
 30
0.0
 10
347.9999999999989
 20
0.000000000000569
 30
0.0
 10
327.1382947364983
 20
0.000000000000569
 30
0.0
 10
252.8759906133731
 20
0.000000000000569
 30
0.0
 10
202.5113788319999
 20
0.000000000000569
 30
0.0
 10
150.0000000000003
 20
0.000000000000569
 30
0.0
  0
SPLINE
  5
B5
330
1B
100
AcDbEntity
 67
     1
  8
0
  6
Continuous
 62
     7
370
    25
100
AcDbSpline
210
0.0
220
0.0
230
1.0
 70
    24
 71
     3
 72
    10
 73
     6
 74
     0
 42
0.000000001
 43
0.00000001
 40
0.0
 40
0.0
 40
0.0
 40
0.0
 40
0.5
 40
0.5
 40
1.0
 40
1.0
 40
1.0
 40
1.0
 10
-149.9999999999986
 20
0.000000000000569
 30
0.0
 10
-202.5113788319983
 20
0.000000000000569
 30
0.0
 10
-252.8759906133693
 20
0.000000000000569
 30
0.0
 10
-327.1382947364955
 20
0.000000000000569
 30
0.0
 10
-347.999999999996
 20
0.000000000000569
 30
0.0
 10
-347.9999999999972
 20
0.000000000000569
 30
0.0
  0
SPLINE
  5
B7
330
1B
100
AcDbEntity
 67
     1
  8
0
  6
Continuous
 62
     7
370
    25
100
AcDbSpline
210
0.0
220
0.0
230
1.0
 70
    24
 71
     3
 72
    10
 73
     6
 74
     0
 42
0.000000001
 43
0.00000001
 40
0.0
 40
0.0
 40
0.0
 40
0.0
 40
0.4999999999999999
 40
0.4999999999999999
 40
0.9999999999999999
 40
0.9999999999999999
 40
0.9999999999999999
 40
0.9999999999999999
 10
150.0000000000003
 20
120.0000000000008
 30
0.0
 10
202.5113788320004
 20
120.0000000000008
 30
0.0
 10
252.8759906133718
 20
120.0000000000008
 30
0.0
 10
327.1382947364988
 20
120.0000000000008
 30
0.0
 10
347.9999999999995
 20
120.0000000000008
 30
0.0
 10
348.0000000000007
 20
120.0000000000008
 30
0.0
  0
LINE
  5
C3
330
1B
100
AcDbEntity
 67
     1
  8
0
  6
Continuous
 62
     7
370
    25
100
AcDbLine
 10
-350.0
 20
118.0
 30
0.0
 11
-350.0
 21
2.0
 31
0.0
  0
LINE
  5
C4
330
1B
100
AcDbEntity
 67
     1
  8
0
  6
Continuous
 62
     7
370
    25
100
AcDbLine
 10
350.0
 20
2.0
 30
0.0
 11
350.0
 21
118.0
 31
0.0
  0
LINE
  5
C5
330
1B
100
AcDbEntity
 67
     1
  8
0
  6
Continuous
 62
     7
370
    25
100
AcDbLine
 10
-150.0
 20
0.0
 30
0.0
 11
-150.0
 21
120.0
 31
0.0
  0
LINE
  5
C6
330
1B
100
AcDbEntity
 67
     1
  8
0
  6
Continuous
 62
     7
370
    25
100
AcDbLine
 10
150.0
 20
120.0
 30
0.0
 11
150.0
 21
0.0
 31
0.0
  0
LINE
  5
C7
330
1B
100
AcDbEntity
 67
     1
  8
0
  6
Continuous
 62
     7
370
    25
100
AcDbLine
 10
350.0
 20
2.0
 30
0.0
 11
-350.0
 21
2.0
 31
0.0
  0
LINE
  5
C8
330
1B
100
AcDbEntity
 67
     1
  8
0
  6
Continuous
 62
     7
370
    25
100
AcDbLine
 10
350.0
 20
118.0
 30
0.0
 11
-350.0
 21
118.0
 31
0.0
  0
LINE
  5
C9
330
1B
100
AcDbEntity
 67
     1
  8
0
  6
Continuous
 62
     7
370
    25
100
AcDbLine
 10
150.0
 20
120.0
 30
0.0
 11
-150.0
 21
120.0
 31
0.0
  0
LINE
  5
CA
330
1B
100
AcDbEntity
 67
     1
  8
0
  6
Continuous
 62
     7
370
    25
100
AcDbLine
 10
-150.0
 20
0.0
 30
0.0
 11
150.0
 21
0.0
 31
0.0
  0
ARC
  5
CB
330
1B
100
AcDbEntity
 67
     1
  8
0
  6
Continuous
 62
     7
370
    25
100
AcDbCircle
 10
-348.0
 20
118.0
 30
0.0
 40
1.999999999999545
100
AcDbArc
 50
90.0
 51
180.0
  0
ARC
  5
CC
330
1B
100
AcDbEntity
 67
     1
  8
0
  6
Continuous
 62
     7
370
    25
100
AcDbCircle
 10
348.0
 20
2.0
 30
0.0
 40
2.000000000000682
100
AcDbArc
 50
270.0
 51
360.0
  0
ARC
  5
CD
330
1B
100
AcDbEntity
 67
     1
  8
0
  6
Continuous
 62
     7
370
    25
100
AcDbCircle
 10
-348.0
 20
2.0
 30
0.0
 40
1.999999999999659
100
AcDbArc
 50
180.0
 51
270.0
  0
ARC
  5
CE
330
1B
100
AcDbEntity
 67
     1
  8
0
  6
Continuous
 62
     7
370
    25
100
AcDbCircle
 10
348.0
 20
118.0
 30
0.0
 40
2.000000000000227
100
AcDbArc
 50
0.0
 51
90.0
  0
VIEWPORT
  5
270
330
1B
100
AcDbEntity
 67
     1
  8
0
100
AcDbViewport
 10
0.0
 20
0.0
 30
0.0
 40
205.6
 41
156.0
 68
     1
 69
     1
 12
0.0
 22
0.0
 13
0.0
 23
0.0
 14
10.0
 24
10.0
 15
10.0
 25
10.0
 16
0.0
 26
0.0
 36
1.0
 17
0.0
 27
0.0
 37
0.0
 42
50.0
 43
0.0
 44
0.0
 45
541.7509727626
 50
0.0
 51
0.0
 72
   100
 90
   557152
  1

281
     0
 71
     1
 74
     0
110
0.0
120
0.0
130
0.0
111
1.0
121
0.0
131
0.0
112
0.0
122
1.0
132
0.0
 79
     0
146
0.0
  0
ENDSEC
  0
SECTION
  2
OBJECTS
  0
DICTIONARY
  5
C
330
0
100
AcDbDictionary
281
     1
  3
ACAD_GROUP
350
D
  3
ACAD_LAYOUT
350
1A
  3
ACAD_MLINESTYLE
350
17
  3
ACAD_PLOTSETTINGS
350
19
  3
ACAD_PLOTSTYLENAME
350
E
  3
ACAD_SCALELIST
350
47
  0
DICTIONARY
  5
D
102
{ACAD_REACTORS
330
C
102
}
330
C
100
AcDbDictionary
281
     1
  0
DICTIONARY
  5
1A
102
{ACAD_REACTORS
330
C
102
}
330
C
100
AcDbDictionary
281
     1
  3
_Dimetrisch
350
221
  3
_Isometrisch
350
163
  3
_Links
350
132
  3
_Normal auf
350
E2
  3
_Rechts
350
26
  3
_Rückseite
350
10A
  3
_Trimetrisch
350
1C5
  3
_Unten
350
148
  3
_Vorderseite
350
1E
  3
Model
350
22
  0
DICTIONARY
  5
17
102
{ACAD_REACTORS
330
C
102
}
330
C
100
AcDbDictionary
281
     1
  3
Standard
350
18
  0
DICTIONARY
  5
19
102
{ACAD_REACTORS
330
C
102
}
330
C
100
AcDbDictionary
281
     1
  0
ACDBDICTIONARYWDFLT
  5
E
102
{ACAD_REACTORS
330
C
102
}
330
C
100
AcDbDictionary
281
     1
  3
Normal
350
F
100
AcDbDictionaryWithDefault
340
F
  0
DICTIONARY
  5
47
102
{ACAD_REACTORS
330
C
102
}
330
C
100
AcDbDictionary
281
     1
  3
A0
350
48
  3
A1
350
49
  3
A2
350
4A
  3
A3
350
4B
  3
A4
350
4C
  3
A5
350
4D
  3
A6
350
4E
  3
A7
350
4F
  3
A8
350
50
  3
A9
350
51
  3
B0
350
52
  3
B1
350
53
  3
B2
350
54
  3
B3
350
55
  3
B4
350
56
  3
B5
350
57
  3
B6
350
58
  3
B7
350
59
  3
B8
350
5A
  3
B9
350
5B
  3
C0
350
5C
  3
C1
350
5D
  3
C2
350
5E
  3
C3
350
5F
  3
C4
350
60
  3
C5
350
61
  3
C6
350
62
  3
C7
350
63
  3
C8
350
64
  3
C9
350
65
  3
D0
350
66
  3
D1
350
67
  3
D2
350
68
  0
LAYOUT
  5
221
102
{ACAD_REACTORS
330
1A
102
}
330
1A
100
AcDbPlotSettings
  1

  2
none_device
  4
ISO_A4_(210.00_x_297.00_MM)
  6

 40
7.5
 41
20.0
 42
7.5
 43
20.0
 44
210.0
 45
297.0
 46
0.0
 47
0.0
 48
0.0
 49
0.0
140
0.0
141
0.0
142
1.0
143
2.7237354086
 70
   688
 72
     1
 73
     1
 74
     1
  7

 75
     0
147
0.3671428571
148
350.0
149
0.0
100
AcDbLayout
  1
_Dimetrisch
 70
     1
 71
     9
 10
0.0
 20
0.0
 11
0.0
 21
0.0
 12
0.0
 22
0.0
 32
0.0
 14
0.0
 24
0.0
 34
0.0
 15
0.0
 25
0.0
 35
0.0
146
0.0
 13
0.0
 23
0.0
 33
0.0
 16
1.0
 26
0.0
 36
0.0
 17
0.0
 27
1.0
 37
0.0
 76
     0
330
220
331
280
  0
LAYOUT
  5
163
102
{ACAD_REACTORS
330
1A
102
}
330
1A
100
AcDbPlotSettings
  1

  2
none_device
  4
ISO_A4_(210.00_x_297.00_MM)
  6

 40
7.5
 41
20.0
 42
7.5
 43
20.0
 44
210.0
 45
297.0
 46
0.0
 47
0.0
 48
0.0
 49
0.0
140
0.0
141
0.0
142
1.0
143
2.7237354086
 70
   688
 72
     1
 73
     1
 74
     1
  7

 75
     0
147
0.3671428571
148
350.0
149
0.0
100
AcDbLayout
  1
_Isometrisch
 70
     1
 71
     7
 10
0.0
 20
0.0
 11
0.0
 21
0.0
 12
0.0
 22
0.0
 32
0.0
 14
0.0
 24
0.0
 34
0.0
 15
0.0
 25
0.0
 35
0.0
146
0.0
 13
0.0
 23
0.0
 33
0.0
 16
1.0
 26
0.0
 36
0.0
 17
0.0
 27
1.0
 37
0.0
 76
     0
330
162
331
27C
  0
LAYOUT
  5
132
102
{ACAD_REACTORS
330
1A
102
}
330
1A
100
AcDbPlotSettings
  1

  2
none_device
  4
ISO_A4_(210.00_x_297.00_MM)
  6

 40
7.5
 41
20.0
 42
7.5
 43
20.0
 44
210.0
 45
297.0
 46
0.0
 47
0.0
 48
0.0
 49
0.0
140
0.0
141
0.0
142
1.0
143
2.7237354086
 70
   688
 72
     1
 73
     1
 74
     1
  7

 75
     0
147
0.3671428571
148
350.0
149
0.0
100
AcDbLayout
  1
_Links
 70
     1
 71
     5
 10
0.0
 20
0.0
 11
0.0
 21
0.0
 12
0.0
 22
0.0
 32
0.0
 14
0.0
 24
0.0
 34
0.0
 15
0.0
 25
0.0
 35
0.0
146
0.0
 13
0.0
 23
0.0
 33
0.0
 16
1.0
 26
0.0
 36
0.0
 17
0.0
 27
1.0
 37
0.0
 76
     0
330
131
331
278
  0
LAYOUT
  5
E2
102
{ACAD_REACTORS
330
1A
102
}
330
1A
100
AcDbPlotSettings
  1

  2
none_device
  4
ISO_A4_(210.00_x_297.00_MM)
  6

 40
7.5
 41
20.0
 42
7.5
 43
20.0
 44
210.0
 45
297.0
 46
0.0
 47
0.0
 48
0.0
 49
0.0
140
0.0
141
0.0
142
1.0
143
2.7237354086
 70
   688
 72
     1
 73
     1
 74
     1
  7

 75
     0
147
0.3671428571
148
350.0
149
0.0
100
AcDbLayout
  1
_Normal auf
 70
     1
 71
     3
 10
0.0
 20
0.0
 11
0.0
 21
0.0
 12
0.0
 22
0.0
 32
0.0
 14
0.0
 24
0.0
 34
0.0
 15
0.0
 25
0.0
 35
0.0
146
0.0
 13
0.0
 23
0.0
 33
0.0
 16
1.0
 26
0.0
 36
0.0
 17
0.0
 27
1.0
 37
0.0
 76
     0
330
E1
331
274
  0
LAYOUT
  5
26
102
{ACAD_REACTORS
330
1A
102
}
330
1A
100
AcDbPlotSettings
  1

  2
none_device
  4
ISO_A4_(210.00_x_297.00_MM)
  6

 40
7.5
 41
20.0
 42
7.5
 43
20.0
 44
210.0
 45
297.0
 46
0.0
 47
0.0
 48
0.0
 49
0.0
140
0.0
141
0.0
142
1.0
143
2.7237354086
 70
   688
 72
     1
 73
     1
 74
     1
  7

 75
     0
147
0.3671428571
148
350.0
149
0.0
100
AcDbLayout
  1
_Rechts
 70
     1
 71
     2
 10
0.0
 20
0.0
 11
0.0
 21
0.0
 12
0.0
 22
0.0
 32
0.0
 14
0.0
 24
0.0
 34
0.0
 15
0.0
 25
0.0
 35
0.0
146
0.0
 13
0.0
 23
0.0
 33
0.0
 16
1.0
 26
0.0
 36
0.0
 17
0.0
 27
1.0
 37
0.0
 76
     0
330
23
331
272
  0
LAYOUT
  5
10A
102
{ACAD_REACTORS
330
1A
102
}
330
1A
100
AcDbPlotSettings
  1

  2
none_device
  4
ISO_A4_(210.00_x_297.00_MM)
  6

 40
7.5
 41
20.0
 42
7.5
 43
20.0
 44
210.0
 45
297.0
 46
0.0
 47
0.0
 48
0.0
 49
0.0
140
0.0
141
0.0
142
1.0
143
2.7237354086
 70
   688
 72
     1
 73
     1
 74
     1
  7

 75
     0
147
0.3671428571
148
350.0
149
0.0
100
AcDbLayout
  1
_Rückseite
 70
     1
 71
     4
 10
0.0
 20
0.0
 11
0.0
 21
0.0
 12
0.0
 22
0.0
 32
0.0
 14
0.0
 24
0.0
 34
0.0
 15
0.0
 25
0.0
 35
0.0
146
0.0
 13
0.0
 23
0.0
 33
0.0
 16
1.0
 26
0.0
 36
0.0
 17
0.0
 27
1.0
 37
0.0
 76
     0
330
109
331
276
  0
LAYOUT
  5
1C5
102
{ACAD_REACTORS
330
1A
102
}
330
1A
100
AcDbPlotSettings
  1

  2
none_device
  4
ISO_A4_(210.00_x_297.00_MM)
  6

 40
7.5
 41
20.0
 42
7.5
 43
20.0
 44
210.0
 45
297.0
 46
0.0
 47
0.0
 48
0.0
 49
0.0
140
0.0
141
0.0
142
1.0
143
2.7237354086
 70
   688
 72
     1
 73
     1
 74
     1
  7

 75
     0
147
0.3671428571
148
350.0
149
0.0
100
AcDbLayout
  1
_Trimetrisch
 70
     1
 71
     8
 10
0.0
 20
0.0
 11
0.0
 21
0.0
 12
0.0
 22
0.0
 32
0.0
 14
0.0
 24
0.0
 34
0.0
 15
0.0
 25
0.0
 35
0.0
146
0.0
 13
0.0
 23
0.0
 33
0.0
 16
1.0
 26
0.0
 36
0.0
 17
0.0
 27
1.0
 37
0.0
 76
     0
330
1C4
331
27E
  0
LAYOUT
  5
148
102
{ACAD_REACTORS
330
1A
102
}
330
1A
100
AcDbPlotSettings
  1

  2
none_device
  4
ISO_A4_(210.00_x_297.00_MM)
  6

 40
7.5
 41
20.0
 42
7.5
 43
20.0
 44
210.0
 45
297.0
 46
0.0
 47
0.0
 48
0.0
 49
0.0
140
0.0
141
0.0
142
1.0
143
2.7237354086
 70
   688
 72
     1
 73
     1
 74
     1
  7

 75
     0
147
0.3671428571
148
350.0
149
0.0
100
AcDbLayout
  1
_Unten
 70
     1
 71
     6
 10
0.0
 20
0.0
 11
0.0
 21
0.0
 12
0.0
 22
0.0
 32
0.0
 14
0.0
 24
0.0
 34
0.0
 15
0.0
 25
0.0
 35
0.0
146
0.0
 13
0.0
 23
0.0
 33
0.0
 16
1.0
 26
0.0
 36
0.0
 17
0.0
 27
1.0
 37
0.0
 76
     0
330
147
331
27A
  0
LAYOUT
  5
1E
102
{ACAD_REACTORS
330
1A
102
}
330
1A
100
AcDbPlotSettings
  1

  2
none_device
  4
ISO_A4_(210.00_x_297.00_MM)
  6

 40
7.5
 41
20.0
 42
7.5
 43
20.0
 44
210.0
 45
297.0
 46
0.0
 47
0.0
 48
0.0
 49
0.0
140
0.0
141
0.0
142
1.0
143
2.7237354086
 70
   688
 72
     1
 73
     1
 74
     1
  7

 75
     0
147
0.3671428571
148
350.0
149
0.0
100
AcDbLayout
  1
_Vorderseite
 70
     1
 71
     1
 10
-404.4747081712
 20
-20.4280155642
 11
404.4747081712
 21
551.5564202335
 12
0.0
 22
0.0
 32
0.0
 14
-350.0
 24
0.0
 34
0.0
 15
350.0
 25
120.0
 35
0.0
146
0.0
 13
0.0
 23
0.0
 33
0.0
 16
1.0
 26
0.0
 36
0.0
 17
0.0
 27
1.0
 37
0.0
 76
     0
330
1B
331
270
  0
LAYOUT
  5
22
102
{ACAD_REACTORS
330
1A
102
}
330
1A
100
AcDbPlotSettings
  1

  2
none_device
  4
ANSI_A_(11.00_x_8.50_Inches)
  6

 40
6.35
 41
19.05
 42
6.35000508
 43
19.05000254
 44
279.4
 45
215.9
 46
133.34999746
 47
88.89999873
 48
0.0
 49
0.0
140
0.0
141
0.0
142
0.0155571429
143
1.0
 70
  1696
 72
     0
 73
     0
 74
     0
  7

 75
     0
147
0.0179189148
148
-1300.4909072572
149
0.0
100
AcDbLayout
  1
Model
 70
     1
 71
     0
 10
0.0
 20
0.0
 11
420.0
 21
297.0
 12
0.0
 22
0.0
 32
0.0
 14
-350.0
 24
-200.0
 34
0.0
 15
350.0
 25
200.0
 35
0.0
146
0.0
 13
0.0
 23
0.0
 33
0.0
 16
1.0
 26
0.0
 36
0.0
 17
0.0
 27
1.0
 37
0.0
 76
     0
330
1F
331
29
  0
MLINESTYLE
  5
18
102
{ACAD_REACTORS
330
17
102
}
330
17
100
AcDbMlineStyle
  2
Standard
 70
     0
  3

 62
   256
 51
90.0
 52
90.0
 71
     2
 49
0.5
 62
   256
  6
BYLAYER
 49
-0.5
 62
   256
  6
BYLAYER
  0
ACDBPLACEHOLDER
  5
F
102
{ACAD_REACTORS
330
E
102
}
330
E
  0
SCALE
  5
48
102
{ACAD_REACTORS
330
47
102
}
330
47
100
AcDbScale
 70
     0
300
1:1
140
1.0
141
1.0
290
     1
  0
SCALE
  5
49
102
{ACAD_REACTORS
330
47
102
}
330
47
100
AcDbScale
 70
     0
300
1:2
140
1.0
141
2.0
290
     0
  0
SCALE
  5
4A
102
{ACAD_REACTORS
330
47
102
}
330
47
100
AcDbScale
 70
     0
300
1:4
140
1.0
141
4.0
290
     0
  0
SCALE
  5
4B
102
{ACAD_REACTORS
330
47
102
}
330
47
100
AcDbScale
 70
     0
300
1:5
140
1.0
141
5.0
290
     0
  0
SCALE
  5
4C
102
{ACAD_REACTORS
330
47
102
}
330
47
100
AcDbScale
 70
     0
300
1:8
140
1.0
141
8.0
290
     0
  0
SCALE
  5
4D
102
{ACAD_REACTORS
330
47
102
}
330
47
100
AcDbScale
 70
     0
300
1:10
140
1.0
141
10.0
290
     0
  0
SCALE
  5
4E
102
{ACAD_REACTORS
330
47
102
}
330
47
100
AcDbScale
 70
     0
300
1:16
140
1.0
141
16.0
290
     0
  0
SCALE
  5
4F
102
{ACAD_REACTORS
330
47
102
}
330
47
100
AcDbScale
 70
     0
300
1:20
140
1.0
141
20.0
290
     0
  0
SCALE
  5
50
102
{ACAD_REACTORS
330
47
102
}
330
47
100
AcDbScale
 70
     0
300
1:30
140
1.0
141
30.0
290
     0
  0
SCALE
  5
51
102
{ACAD_REACTORS
330
47
102
}
330
47
100
AcDbScale
 70
     0
300
1:40
140
1.0
141
40.0
290
     0
  0
SCALE
  5
52
102
{ACAD_REACTORS
330
47
102
}
330
47
100
AcDbScale
 70
     0
300
1:50
140
1.0
141
50.0
290
     0
  0
SCALE
  5
53
102
{ACAD_REACTORS
330
47
102
}
330
47
100
AcDbScale
 70
     0
300
1:100
140
1.0
141
100.0
290
     0
  0
SCALE
  5
54
102
{ACAD_REACTORS
330
47
102
}
330
47
100
AcDbScale
 70
     0
300
2:1
140
2.0
141
1.0
290
     0
  0
SCALE
  5
55
102
{ACAD_REACTORS
330
47
102
}
330
47
100
AcDbScale
 70
     0
300
4:1
140
4.0
141
1.0
290
     0
  0
SCALE
  5
56
102
{ACAD_REACTORS
330
47
102
}
330
47
100
AcDbScale
 70
     0
300
8:1
140
8.0
141
1.0
290
     0
  0
SCALE
  5
57
102
{ACAD_REACTORS
330
47
102
}
330
47
100
AcDbScale
 70
     0
300
10:1
140
10.0
141
1.0
290
     0
  0
SCALE
  5
58
102
{ACAD_REACTORS
330
47
102
}
330
47
100
AcDbScale
 70
     0
300
100:1
140
100.0
141
1.0
290
     0
  0
SCALE
  5
59
102
{ACAD_REACTORS
330
47
102
}
330
47
100
AcDbScale
 70
     0
300
1/128" = 1'-0"
140
0.0078125
141
12.0
290
     0
  0
SCALE
  5
5A
102
{ACAD_REACTORS
330
47
102
}
330
47
100
AcDbScale
 70
     0
300
1/64" = 1'-0"
140
0.015625
141
12.0
290
     0
  0
SCALE
  5
5B
102
{ACAD_REACTORS
330
47
102
}
330
47
100
AcDbScale
 70
     0
300
1/32" = 1'-0"
140
0.03125
141
12.0
290
     0
  0
SCALE
  5
5C
102
{ACAD_REACTORS
330
47
102
}
330
47
100
AcDbScale
 70
     0
300
1/16" = 1'-0"
140
0.0625
141
12.0
290
     0
  0
SCALE
  5
5D
102
{ACAD_REACTORS
330
47
102
}
330
47
100
AcDbScale
 70
     0
300
3/32" = 1'-0"
140
0.09375
141
12.0
290
     0
  0
SCALE
  5
5E
102
{ACAD_REACTORS
330
47
102
}
330
47
100
AcDbScale
 70
     0
300
1/8" = 1'-0"
140
0.125
141
12.0
290
     0
  0
SCALE
  5
5F
102
{ACAD_REACTORS
330
47
102
}
330
47
100
AcDbScale
 70
     0
300
3/16" = 1'-0"
140
0.1875
141
12.0
290
     0
  0
SCALE
  5
60
102
{ACAD_REACTORS
330
47
102
}
330
47
100
AcDbScale
 70
     0
300
1/4" = 1'-0"
140
0.25
141
12.0
290
     0
  0
SCALE
  5
61
102
{ACAD_REACTORS
330
47
102
}
330
47
100
AcDbScale
 70
     0
300
3/8" = 1'-0"
140
0.375
141
12.0
290
     0
  0
SCALE
  5
62
102
{ACAD_REACTORS
330
47
102
}
330
47
100
AcDbScale
 70
     0
300
1/2" = 1'-0"
140
0.5
141
12.0
290
     0
  0
SCALE
  5
63
102
{ACAD_REACTORS
330
47
102
}
330
47
100
AcDbScale
 70
     0
300
3/4" = 1'-0"
140
0.75
141
12.0
290
     0
  0
SCALE
  5
64
102
{ACAD_REACTORS
330
47
102
}
330
47
100
AcDbScale
 70
     0
300
1" = 1'-0"
140
1.0
141
12.0
290
     0
  0
SCALE
  5
65
102
{ACAD_REACTORS
330
47
102
}
330
47
100
AcDbScale
 70
     0
300
1-1/2" = 1'-0"
140
1.5
141
12.0
290
     0
  0
SCALE
  5
66
102
{ACAD_REACTORS
330
47
102
}
330
47
100
AcDbScale
 70
     0
300
3" = 1'-0"
140
3.0
141
12.0
290
     0
  0
SCALE
  5
67
102
{ACAD_REACTORS
330
47
102
}
330
47
100
AcDbScale
 70
     0
300
6" = 1'-0"
140
6.0
141
12.0
290
     0
  0
SCALE
  5
68
102
{ACAD_REACTORS
330
47
102
}
330
47
100
AcDbScale
 70
     0
300
1'-0" = 1'-0"
140
12.0
141
12.0
290
     0
  0
ENDSEC
  0
EOF
